Gorillaz

home > Gorillaz

Feel Good Inc (ver. 2) Bass Tab

Gorillaz

Difficulty: BeginnerBeginner

tuner correct add songbook print version text version save to e-mail
chordsukulelecavacokeyboardtabbassdrumsharmonicsflute Guitar Pro
chords

Feel Good Inc (ver. 2)

  		This is probaly right, i might have got the timing wrong so listen to the song 
I was doing the guitar part but i kept comming back to this bass part. 
if u have any corrections email me at [email protected] 
 
 
g-------------------------------------------| 
d------------8-7----------------------------| 
a--0-3-5-7-------3-5-7-5------0-------------| 
d---------------------------8---------------| 
 
Then just slide 
 
g------------------------------------------| 
d------------------------------------------| 
a--3/12------------------------------------| 
d------------------------------------------| 
 
This hust before the guitar bit. 
 
g------------------------------------------| 
d------------------------------------------| 
a--7-7-6-5-3-0-----------------------------| 
d------------------------------------------| 

	  

Search Paypal
auto scroll beats size up size down change color hide chords drawings
tab show chords e-chords YouTube Clip e-chords hide all tabs e-chords go to top tab