Gorillaz

home > Gorillaz

Clint Eastwood Tab

Gorillaz

Difficulty: BeginnerBeginner

tuner correct add songbook print version text version save to e-mail
chordsukulelecavacokeyboardtabbassdrummharmonicsflute Guitar Pro
chords

Clint Eastwood

  		h- hammer on
p- pull off
(x#)- amount of times played
Standard Tunings
Clean

Main Riff 6-String
|---7-7---7--|      |---7-7---7---|
|---8-8---8--|      |---8-8---8---|
|---9-9---9--|      |---9-9---9---|
|---9-9---9--|      |---9-9---9---|
|---7-7---7--|      |---7-7---7---|
|-0-----7----|(X3)  |-0-----8-----|(X1)
Main Riff 5-String Bass
|------------|      |-------------|
|------------|      |-------------|
|---9-9---9--|      |---9-9---9---|
|-7----------|	    |-7-----------|
|-------7----|(X3)  |-------8-----|(X1)                                

Riff I heard on the video. Right before it shows who they are, (symbols) TSH! TSH! TSH! then...
|-----------------|
|-----------------|
|---------------9-|
|-----9p7h9-------|
|---7-------7-----|
|-0-----------7---|
	  

Search Paypal
auto scroll beats size up size down change color hide chords drawings
tab show chords e-chords YouTube Clip e-chords hide all tabs e-chords go to top tab