Gary Moore

Seperate Ways

Gary Moore

tabs

by  LINEKERS

save to print version add songbook text version e-mail correct tuner
chordsukulelecavacokeyboardtabbassdrumsharmonicaflute Guitar Pro
close

there isn't a video lesson for this song

chords

Seperate Ways

	  		Gtr I (E A D G B E) - 'Gtr. 1' 

Gtr II (E A D G B E) - 'Gtr. 2' 


  Q=83 
 4/4 
  Gtr I 
  H    Q  E S S   Q.   E +H       E E E E +Q   +E  S S   Q.   E +Q.   E 
|---------------|---------------|----------------------|-----------------| 
|---------------|---------------|----------------------|-----------------| 
|---------------|---------------|----------------------|-----------------| 
|---------------|------2-(2)----|----------------------|------2-(2)------| 
|-----------0-2-|-5-------------|-0-2-5-2-(2)--(2)-0-2-|-5---------------| 
|---------------|---------------|----------------------|--------------2--| 


  E E E E +H       Q  S E S H      H    S     S S    +S  +E  +S  S 
|----------------|----7----------|---------------------------------| 
|----------------|----7----------|-----------10--------------------| 
|----------------|---------------|------9b11----9b11r(9)-(9)-(9)-7-| 
|----------------|---------------|---------------------------------| 
|-0-2-5-2-(2)----|---------------|---------------------------------| 
|----------------|---------------|---------------------------------| 


                                                                  ~~~~~~~ 
  T  S. E +H     +E  S S   E Q  E Q  Q    H.      S E S   H     S E. +Q 
|------------------------|--------------|---------7-----|------10-7--(7)---| 
|------------------------|--------------|---------7-----|------------------| 
|-9s11-----------------7-|-7s9--7-6-----|---------------|------------------| 
|-------9-(9)----(9)-9---|-----------7--|---------------|------------------| 
|------------------------|--------------|-9-------------|------------------| 
|------------------------|--------------|---------------|------------------| 


                                                    ~~~~~~~ 
  Q  S E S H      H    E. S Q    W          H     S E. +Q 
|---------------|-----------5--|----------|------10-7--(7)---| 
|-7--7----------|------5----5--|-7--------|------------------| 
|-7--7----------|------6-------|-7--------|------------------| 
|-9-------------|------7--7----|-9--------|------------------| 
|---------------|--------------|----------|------------------| 
|---------------|--------------|----------|------------------| 


  W          H    Q  Q    W          Q  S E S Q  S E S 
|----------|---------5--|-0--------|----2--------0-----| 
|----------|------5--5--|-0--------|----2--------0-----| 
|----------|------6--6--|-6--------|-------------------| 
|----------|------7-----|-7--------|-------------------| 
|----------|------------|----------|-------------------| 
|----------|------------|----------|-------------------| 


  W          Q  E E Q   E E   S E. +H.        W 
|----------|----------------|---------------|------| 
|----------|----------------|---------------|------| 
|----------|--------7--11-7-|-7s9--(9)------|------| 
|----------|----9-9---------|---------------|------| 
|----------|--------5---9-5-|-5s7--(7)------|------| 
|----------|----7-7---------|---------------|------| 


  H    Q.   E   +W           H     E  E  E  E    W 
|-------------|------------|------------------|-------| 
|-3----3----3-|-(3)--------|------12s14-12s10-|-12----| 
|-0----2----0-|-(0)--------|------------------|-------| 
|-----------4-|-(4)--------|-------9s11--9s=7-|--9----| 
|-------------|------------|------------------|-------| 
|-------------|------------|------------------|-------| 


  H     E  E  E  E   W          H     E  E  E  E    W 
|------------------|----------|------------------|-------| 
|------12s14-12s10-|-7--------|------12s14-12s10-|-12----| 
|------------------|----------|------------------|-------| 
|-------9s11--9s=7-|----------|-------9s11--9s=7-|--9----| 
|------------------|-9--------|------------------|-------| 
|------------------|----------|------------------|-------| 


                                                           ~~~~~~~ 
  H     E  E  E  E    Q   Q   Q   Q     W          H     S E. +Q 
|------------------|---------17--15--|-14--------|------10-7--(7)--| 
|------12s14-15-17-|-19--17----------|-----------|-----------------| 
|------------------|---------14--12--|-11--------|-----------------| 
|-------9s11-12-14-|-16--14----------|-----------|-----------------| 
|------------------|-----------------|-----------|-----------------| 
|------------------|-----------------|-----------|-----------------| 


                                            ~~~~~~~~~~~~ 
  H    Q  S E S   Q  E E E E E    E    Q.   E  +E   +Q.     H.      S S E 
|---------------|--------------------|--------------------|-0-------------| 
|---------7-----|--------------------|--------------------|-0-------------| 
|---------7-----|--------7-9-9b11-7/-|-9s==11-(11)-(11)---|-6-----------7-| 
|---------------|------9-------------|--------------------|---------7p9---| 
|---------------|--------------------|--------------------|---------------| 
|---------------|--------------------|--------------------|---------------| 


  ~ 
  W          H    E E E E   H     E  E  E  E    W 
|----------|--------------|------------------|-------| 
|----------|------3-2-----|------12s14-12s10-|-12----| 
|----------|------2---4-2-|------------------|-------| 
|-9--------|------2-------|-------9s11--9s=7-|--9----| 
|----------|--------------|------------------|-------| 
|----------|--------------|------------------|-------| 


  H     E  E  E  E   W          H     E  E  E  E    W 
|------------------|----------|------------------|-------| 
|------12s14-12s10-|-7--------|------12s14-12s10-|-12----| 
|------------------|----------|------------------|-------| 
|-------9s11--9s=7-|----------|-------9s11--9s=7-|--9----| 
|------------------|-9--------|------------------|-------| 
|------------------|----------|------------------|-------| 


  H     E  E  E  E    Q   Q   Q   Q     W          W 
|------------------|---------17--15--|-14--------|------| 
|------12s14-15-17-|-19--17----------|-----------|------| 
|------------------|---------14--12--|-11--------|------| 
|-------9s11-12-14-|-16--14----------|-----------|------| 
|------------------|-----------------|-----------|------| 
|------------------|-----------------|-----------|------| 


  W          E  S  S  +E   E  S  S E  S S E    W          W 
|----------|---------------------------------|----------|------| 
|----------|---14h17-(17)-10-14p10---10p7----|----------|-0----| 
|----------|------------------------------7/-|-9--------|-6----| 
|----------|---------------------------------|----------|-7----| 
|----------|---------------------------------|----------|------| 
|----------|---------------------------------|----------|------| 


  W          H.      E S S   Q.   E +Q.   E   E E E E +H 
|----------|---------------|----------------|----------------| 
|-7--------|-9-------------|----------------|----------------| 
|-7--------|-9-------------|----------------|----------------| 
|-9--------|-9-------------|------2-(2)-----|----------------| 
|----------|-------------2-|-5--------------|---2-5-2-(2)----| 
|----------|-----------5---|--------------2-|-5--------------| 


  Gtr II 
  H    Q  E  S  S    H.         +S   +S   +E 
|-----------------|---------------------------| 
|-----------10p12-|-12b14r=====(12)-(12)-(12)-| 
|-----------------|---------------------------| 
|-----------------|---------------------------| 
|-----------------|---------------------------| 
|-----------------|---------------------------| 


           ~~~~~~~~~~~~~~~~~ 
  T    +T  S     +Q.   +Q    E S S 
|-----------------------------------| 
|-----------------------------------| 
|-9b11r(9)-9b11==(9)---(9)r------7--| 
|------------------------------9----| 
|-----------------------------------| 
|-----------------------------------| 


  |---3----| 
  S    +S  S E Q  E S    S S S S  S 
|--------------------------7---7-10-| 
|------------------------7---7------| 
|-9b10r(9)-7--------9b11------------| 
|------------9----------------------| 
|-----------------------------------| 
|-----------------------------------| 


                       ~~~~~~~~~~ 
                  |-3--| 
  E  E     +S  S  E  E E +E  +Q      H        +Q    +E  E 
|-7-10b12r(10)-7-10-10-7-(7)-(7)--|-10b14r===(10)--(10)-7-| 
|---------------------------------|-----------------------| 
|---------------------------------|-----------------------| 
|---------------------------------|-----------------------| 
|---------------------------------|-----------------------| 
|---------------------------------|-----------------------| 


       ~~~~~~~~~~~           ~~ 
   E S S +Q   +E  E  E  E    Q   Q   Q      +Q 
|-10-7-7-(7)--(7)-9-10-12-|-14--12--15b17r=(15)--| 
|-------------------------|----------------------| 
|-------------------------|----------------------| 
|-------------------------|----------------------| 
|-------------------------|----------------------| 
|-------------------------|----------------------| 


              Gtr I 
   ~~ 
   W          H    E   E    Q 
|-14--------|--------<12>--------| 
|-----------|-------------<12>---| 
|-----------|--------------------| 
|-----------|--------------------| 
|-----------|--------------------| 
|-----------|--------------------| 


                                       ~ 
   S  E.  +H.        Q  E E Q  Q       W          W 
|-10---------------|-----------------|----------|------| 
|----12--(12)------|-----------------|----------|------| 
|------------------|--------7--9b11--|-9--------|------| 
|------------------|----9-9----------|----------|------| 
|------------------|-----------------|----------|------| 
|------------------|-----------------|----------|------| 


  H    Q.   E   +W           W          H     E  E  E  E 
|-------------|------------|----------|------------------| 
|-3----3----3-|-(3)--------|----------|------12s14-12s10-| 
|-0----2----4-|-(4)--------|----------|------------------| 
|-------------|------------|----------|-------9s11--9s=7-| 
|-------------|------------|----------|------------------| 
|-0----2----3-|-(3)--------|----------|------------------| 


   W          H     E  E  E  E   W          H     E  E  E  E 
|-----------|------------------|----------|------------------| 
|-12--------|------12s14-12s10-|-7--------|------12s14-12s10-| 
|-----------|------------------|----------|------------------| 
|--9--------|-------9s11--9s=7-|----------|-------9s11--9s=7-| 
|-----------|------------------|-9--------|------------------| 
|-----------|------------------|----------|------------------| 


   W          H     E  E  E  E   W          H     E  E  E  E 
|-----------|------------------|----------|------------------| 
|-12--------|------12s14-12s10-|-7--------|------12s14-12s10-| 
|-----------|------------------|----------|------------------| 
|--9--------|-------9s11--9s=7-|----------|-------9s11--9s=7-| 
|-----------|------------------|-9--------|------------------| 
|-----------|------------------|----------|------------------| 


   W          H     E  E  E  E   W          H     E  E  E  E 
|-----------|------------------|----------|------------------| 
|-12--------|------12s14-12s10-|-7--------|------12s14-12s10-| 
|-----------|------------------|----------|------------------| 
|--9--------|-------9s11--9s=7-|----------|-------9s11--9s=7-| 
|-----------|------------------|-9--------|------------------| 
|-----------|------------------|----------|------------------| 


   W          H     E  E  E  E    Q   Q   H      Q.   E +H 
|-----------|------------------|---------17----|---------------| 
|-12--------|------12-14-15-17-|-19--17--------|---------------| 
|-----------|------------------|---------14----|-7----9-(9)----| 
|--9--------|-------9-11-12-14-|-16--14--------|---------------| 
|-----------|------------------|---------------|---------------| 
|-----------|------------------|---------------|---------------| 


                                ~~~~~~ 
  E E E   E +Q   +E  S S   Q.   E +Q.   E 
|------------------------|----------------| 
|------------------------|----------------| 
|-----7b8----------------|-7----9-(9)-----| 
|-7-9-----9-(9)--(9)-7h9-|----------------| 
|------------------------|--------------9-| 
|------------------------|----------------| 


  E E E E +H       H     E   E   E   E 
|----------------|------7--------------| 
|----------------|----------7----------| 
|-----7----------|--------------7-9--| 
|-7-9---9-(9)----|-----------------------| 
|----------------|-----------------------| 
|----------------|-7---------------------| 


   W 
|-7----*| 
|--------*| 
|--------*| 
|--------*| 
|--------*| 
|--------*| 


Duration Legend 
--------------- 
W - whole; H - half; Q - quarter; E - 8th; S - 16th; T - 32nd; X - 64th; a - acciaccatura 
+ - note tied to previous; . - note dotted; .. - note double dotted 
Uncapitalized letters represent notes that are staccato (1/2 duration) 
Irregular groupings are notated above the duration line 
Duration letters will always appear directly above the note/fret number it represents the 
duration for.  Duration letters with no fret number below them represent rests.  Multi- 
bar rests are notated in the form Wxn, where n is the number of bars to rest for.  Low 
melody durations appear below the staff 

Tablature Legend 
---------------- 
 h   - hammer-on 
 p   - pull-off 
 b   - bend 
 pb  - pre-bend 
 r   - bend release (if no number after the r, then release immediately) 
 /\  - slide into or out of (from/to "nowhere") 
 s   - legato slide 
 S   - shift slide 
 - natural harmonic 
n  - artificial harmonic 
n(n) - tapped harmonic 
 ~   - vibrato 
 tr  - trill 
 T   - tap 
 TP  - trem. picking 
 PM  - palm muting 
\n/  - tremolo bar dip; n = amount to dip 
 \n  - tremolo bar down 
 n/  - tremolo bar up 
/n\  - tremolo bar inverted dip 
 =   - hold bend; also acts as connecting device for hammers/pulls 
 <> - volume swell (louder/softer) 
 x   - on rhythm slash represents muted slash 
 o   - on rhythm slash represents single note slash 
		  

See also:

tabs Yes - Roundabout tabs Queen - we will rock you (solo) tabs Status Quo - Whatever you want tabs Eric Clapton - Tears In Heaven (ver. 3) tabs The Beatles - Blackbird tabs Billy Idol - White Wedding
e-chords

Other versions:

tabs Gary Moore - Seperate Ways tabs Journey - Seperate Ways (Worlds Apart)
auto scroll beats size up size down change color hide chords drawings
tab show chords e-chords YouTube Clip e-chords hide all tabs e-chords go to top tab

share