Gabe Bondoc

Sea Foam

Gabe Bondoc

tabs

by  RENEJUNIOR

save to print version add songbook text version e-mail correct tuner
chordsukulelecavacokeyboardtabbassdrumsharmonicaflute Guitar Pro
close

there isn't a video lesson for this song

chords

Sea Foam

	  		
Intro 

e|-----------------------------------------------------------------------------------------------------------| 
B|-----------------------------------------------------------------------------------------------------------| 
G|-----------------------------------------------------------------------------------------------------------| 
D|------------------------------------------------------9-9-9-14-14-14-14-14-7-7-7-7-7-7-7-7-----------------| 
A|-7-7-7-7-7-7-7-7-7-7-7-6-6-6-7-7-(x2)-7-7-7-7-7-7-7-7-6-6-6-11-11-11-11-11-9-9-9-9-9-9-9-9-7-7-7-6-6-6-7-7-| 
E|-5-5-5-5-5-5-5-5-9-9-9-7-7-7-7-7------5-5-5-5-5-5-5-5--------------------------------------7-7-7-7-7-7-4-4-| 


Verse (x3) 

1(sea foam washin over me/draw me in..)  (ankle deep and i'm...)    
2(fallen down waterfall/feel the crash..)(knee deep and i'm...) 
3(with a smile/stare at your...)         (the way you say my name...) 
e|-------------------------------------|---------------------------------------------------------------------| 
B|-------------------------------------|---------------------------------------------------------------------| 
G|-------------------------------------|---------------------------------------------------------------------| 
D|-------------------------------------|----------------9-9-9-14-14-14-14-14-7-7-7-7-7-7-7-7-----------------| 
A|-7-7-7-7-7-7-7-7-7-7-7-6-6-6-7-7-(x2)|7-7-7-7-7-7-7-7-6-6-6-11-11-11-11-11-9-9-9-9-9-9-9-9-7-7-7-6-6-6-7-7-| 
E|-5-5-5-5-5-5-5-5-9-9-9-7-7-7-7-7-----|5-5-5-5-5-5-5-5--------------------------------------7-7-7-7-7-7-4-4-| 


Pre-Chorus (x2) 

1(push push pull, pull me down in your undertow..) 
2(push push pull, wanna sit by your oceanside..) 
e|-----------------------------------------------------------------------| 
B|-----------------------------------------------------------------------| 
G|-----------------------------------------------------------------------| 
D|-------------------------------------------------2-x-x-4-x-x-6-x-(x2)--| 
A|-7-x-x-7-x-x-7-x-6-x-x-6-x-x(7)x-7-x-x-7-x-x-7-x-4-x-x-6-x-x-7-x-------| 
E|-5-x-x-5-x-x-5-x-7-x-x-7-x-x-7-x-4-x-x-4-x-x-4-x-----------------------| 


Chorus 

(with a body like that, body of water...)                                            (you and the sea..) 
e|------------------------------------------------------------------------------------------------------| 
B|------------------------------------------------------------------------------------------------------| 
G|------------------------------------------------------------------------------------------------------| 
D|-----------------------------------------------------------------7-x-x-7-x-x-7-x----------------------| 
A|-7-x-x-7-x-x-7-x-6-x-x-6-x-x-6-x-7-x-x-7-x-x-7-x-7-x-x-7-x-x-7-x-9-x-x-9-x-x-9-x-x-7-7-6-x-x-x-x------| 
E|-5-x-x-5-x-x-5-x-7-x-x-7-x-x-7-x-8-x-x-8-x-x-8-x-9-x-x-9-x-x-9-x-----------------x-7-7-7-x-x-x-x------| 

                   (you and the sea...) 
e|-----------------------------------------------------------------------| 
B|-----------------------------------------------------------------------| 
G|-----------------------------------------------------------------------| 
D|-----------------------------------------------------------------------| 
A|-7-x-x-7-x-x-7-x-7-x-x-6-x-x(7)x-7-x-x-7-x-x-7-x-x-7-x-x-6-x-7-x-------| 
E|-5-x-x-5-x-x-5-x-9-x-x-7-x-x-7-x-5-x-x-5-x-x-5-x-x-9-x-x-7-x-4-x-------| 


Verse (x3) 

1(I still remember/tried to ride it..)   (waist deep but i'm...)    
2(you got everything/and i hope..)       (shoulder deep but i'm ...) 
3(with a smile/stare at your...)         (the way you say my name...) 
e|-------------------------------------|---------------------------------------------------------------------| 
B|-------------------------------------|---------------------------------------------------------------------| 
G|-------------------------------------|---------------------------------------------------------------------| 
D|-------------------------------------|----------------9-9-9-14-14-14-14-14-7-7-7-7-7-7-7-7-----------------| 
A|-7-7-7-7-7-7-7-7-7-7-7-6-6-6-7-7-(x2)|7-7-7-7-7-7-7-7-6-6-6-11-11-11-11-11-9-9-9-9-9-9-9-9-7-7-7-6-6-6-7-7-| 
E|-5-5-5-5-5-5-5-5-9-9-9-7-7-7-7-7-----|5-5-5-5-5-5-5-5--------------------------------------7-7-7-7-7-7-4-4-| 


Pre-Chorus (x2) 

1(push push pull, pull me down in your undertow..) 
2(push push pull, wanna sit by your oceanside..) 
e|-----------------------------------------------------------------------| 
B|-----------------------------------------------------------------------| 
G|-----------------------------------------------------------------------| 
D|-------------------------------------------------2-x-x-4-x-x-6-x-(x2)--| 
A|-7-x-x-7-x-x-7-x-6-x-x-6-x-x(7)x-7-x-x-7-x-x-7-x-4-x-x-6-x-x-7-x-------| 
E|-5-x-x-5-x-x-5-x-7-x-x-7-x-x-7-x-4-x-x-4-x-x-4-x-----------------------| 


Chorus 

(with a body like that, body of water...)                                             (you and the sea..) 
e|------------------------------------------------------------------------------------------------------| 
B|------------------------------------------------------------------------------------------------------| 
G|------------------------------------------------------------------------------------------------------| 
D|-----------------------------------------------------------------7-x-x-7-x-x-7-x----------------------| 
A|-7-x-x-7-x-x-7-x-6-x-x-6-x-x-6-x-7-x-x-7-x-x-7-x-7-x-x-7-x-x-7-x-9-x-x-9-x-x-9-x-x-7-7-6-x-x-x-x------| 
E|-5-x-x-5-x-x-5-x-7-x-x-7-x-x-7-x-8-x-x-8-x-x-8-x-9-x-x-9-x-x-9-x-----------------x-7-7-7-x-x-x-x------| 


Bridge 

(you, are the one...)     (you, you are...)   (you, you are the time and...) 
e|---0---0----0---0-0-----0---0---0---0-0-----0---0---0---0----------------| 
B|---0---0----0---0-0-----0---0---0---0-0-----0---0---0---0---5---5--------| 
G|---4---4----2---2-2-----4---4---2---2-2-----4---4---2---4---6---6--------| 
D|---4---2----2---1/2-----4---2---2---2\1-----4---2---2---4---7---7--------| 
A|---x---4----x---2-2-----x---4---x---2-2-----x---4---x---x---x---x--------| 
E|---4--------2-----------4-------2-----------4-------2---4---5---7--------| 
thumb^                                                PM-----> 


Verse  

(with a smile/stare at your...)         (the way you say my name...) 
e|-------------------------------------|-----------------0---0---0---------| 
B|-------------------------------------|-----------------0---0---0---5-----| 
G|-------------------------------------|-----------------4---4---2---6-----| 
D|-------------------------------------|-----------------4---2---2---7-----| 
A|-7-7-7-7-7-7-7-7-7-7-7-6-6-6-7-7-(x2)|7-7-7-7-7-7-7-7--x---4---x---x-----| 
E|-5-5-5-5-5-5-5-5-9-9-9-7-7-7-7-7-----|5-5-5-5-5-5-5-5--4-------2---7-----| 
                                                                PM 

Pre-Chorus 

(push push pull, pull me down in your undertow..) 
(push push pull, wanna sit by your oceanside..) 
e|-----------------------------------------------------------------------| 
B|-----------------------------------------------------------------------| 
G|-----------------------------------------------------------------------| 
D|-------------------------------------------------2-x-x-4-x-x-6-x-(x2)--| 
A|-7-x-x-7-x-x-7-x-6-x-x-6-x-x(7)x-7-x-x-7-x-x-7-x-4-x-x-6-x-x-7-x-------| 
E|-5-x-x-5-x-x-5-x-7-x-x-7-x-x-7-x-4-x-x-4-x-x-4-x-----------------------| 


Chorus 

(with a body like that, body of water...)                                             (you and the sea..) 
e|------------------------------------------------------------------------------------------------------| 
B|------------------------------------------------------------------------------------------------------| 
G|------------------------------------------------------------------------------------------------------| 
D|-----------------------------------------------------------------7-x-x-7-x-x-7-x----------------------| 
A|-7-x-x-7-x-x-7-x-6-x-x-6-x-x-6-x-7-x-x-7-x-x-7-x-7-x-x-7-x-x-7-x-9-x-x-9-x-x-9-x-x-7-7-6-x-x-x-x------| 
E|-5-x-x-5-x-x-5-x-7-x-x-7-x-x-7-x-8-x-x-8-x-x-8-x-9-x-x-9-x-x-9-x-----------------x-7-7-7-x-x-x-x------| 

                   (you and the sea...) 
e|-----------------------------------------------------------------------| 
B|-----------------------------------------------------------------------| 
G|-----------------------------------------------------------------------| 
D|-----------------------------------------------------------------------| 
A|-7-x-x-7-x-x-7-x-7-x-x-6-x-x(7)x-7-x-x-7-x-x-7-x-x-7-x-x-6-x-7-x-------| 
E|-5-x-x-5-x-x-5-x-9-x-x-7-x-x-7-x-5-x-x-5-x-x-5-x-x-9-x-x-7-x-4-x-------| 

Repeats until fade out.. 


************************************ 


| /  slide up 
| \  slide down 
| h  hammer-on 
| p  pull-off 
| ~  vibrato 
| +  harmonic 
| x  Mute note 

************************************ 
		  

See also:

tabs Lindsay Lohan - Take me away tabs Michael Jackson - BEN tabs Stevie Wonder - Sir Duke tabs Michael Jackson - 3 Michael Jackson Riffs tabs Christopher Cross - Sailing tabs Black Eyed Peas - Pump it
e-chords

Other versions:

tabs Gabe Bondoc - Sea Foam
auto scroll beats size up size down change color hide chords drawings
tab show chords e-chords YouTube Clip e-chords hide all tabs e-chords go to top tab

share