Gabe Bondoc

Let It Snow

Gabe Bondoc

tabs

by  HUGO_RODRIGUES

save to print version add songbook text version e-mail correct tuner
chordsukulelecavacokeyboardtabbassdrumsharmonicaflute Guitar Pro
close

there isn't a video lesson for this song

chords

Let It Snow

	  		Intro 

e|-----------7-----------------------|---------------------------| 
B|---7----8-----(8)-----10-----8p7---|-----7----7--7----3--3-----| 
G|---6----7-------(7)---9------8-----|-----7----7--7----4--4-----| 
D|---7----9-------------11-----7-----|-----5----5--5----5--5-----| 
A|---5----7-------------9------------|---7----7------------------| 
E|-----------------------------------|------------------5--5-----| 

e|----------------------------------------------|------------5-------| 
B|-----7-------------8-------------10-----8p7---|---7---3----5---3---| 
G|-----6--(6)--------7--(7)--------9------8-----|---7---4----4---4---| 
D|-----7----(7)------9----(9)------11-----7-----|---5---5----4---5---| 
A|---5-------------7------------9---------------|---7--------5-------| 
E|----------------------------------------------|-------5--------5---| 


Verse 

When the weather... 
e|----------------------------|-------------------------| 
B|---7----8-----10-----8p7----|-----7----7--7----3--3---| 
G|---6----7-----9------8------|-----7----7--7----4--4---| 
D|---7----9-----11-----7------|-----5----5--5----5--5---| 
A|---5----7-----9-------------|---7----7----------------| 
E|----------------------------|------------------5--5---| 

e|----------------------------|--------------5----------| 
B|-----10----10--10-----8--7--|---7----3-----5----3-----| 
G|-----9-----9---9------8--8--|---7----4-----4----4-----| 
D|-----11----11--11-----7--7--|---5----5-----4----5-----| 
A|---9-----9------------------|---7----------5----------| 
E|----------------------------|--------5----------5-----| 


Chorus 

When we finally kiss goodnight... 
e|----------------------------------------|--------------------------------| 
B|----------------------------------------|--------------------------------| 
G|-----6--(6)-------7--(7)-------9----9---|-----7----7--7----7---6/7--7----| 
D|-----6----(6)-----7----(7)-----9----8---|-----7----7--7----6---5/6--6----| 
A|------------------------------------9---|------------------7---6/7-------| 
E|---5------------7------------9----------|---7----7-----------------------| 

e|----------------------------------------|--------------------------------| 
B|----------------------------------------|------------5---4/5---5---------| 
G|-----6--(6)-------7--(7)-------9----9---|---7---7----6---5/6---6---------| 
D|-----6----(6)-----7----(7)-----9----8---|---7---6----6---5/6---6---------| 
A|------------------------------------9---|-------7------------------------| 
E|---5------------7------------9----------|---7--------5---4/5-------------| 

  
************************************ 

| (n)  Ghost note 
| p    Pull-off 
| /    Slide up 

************************************ 
		  

See also:

tabs Lindsay Lohan - Take me away tabs Michael Jackson - BEN tabs Stevie Wonder - Sir Duke tabs Michael Jackson - 3 Michael Jackson Riffs tabs Christopher Cross - Sailing tabs Black Eyed Peas - Pump it
e-chords

Other versions:

tabs Dean Martin - Let It Snow tabs Gabe Bondoc - Let It Snow
auto scroll beats size up size down change color hide chords drawings
tab show chords e-chords YouTube Clip e-chords hide all tabs e-chords go to top tab

share