Frank Sinatra

home > Frank Sinatra

Jingle Bells Tab

Frank Sinatra

Difficulty: nolevelnolevel

by aleffederico

tuner correct add songbook print version text version save to e-mail
chordsukulelecavacokeyboardtabbassdrumsharmonicsflute Guitar Pro
chords

Jingle Bells

  		Tuning: standard 

Tried to find the second part of this song to fit the first section of tablature. 
Can someone help me out? 

e|---------------------------------------------------------------------------| 
B|---------------------------------------------------------------------------| 
G|--5-5-5---5-5-5---5-8-----5--6-6-6--6-6-5-5--5-5-8-8-6---------------------| 
D|----------------------6-8------------------------------8-6-----------------| 
A|---------------------------------------------------------------------------| 
E|---------------------------------------------------------------------------| 

e|---------------------------------------------------------------------------| 
B|---------------------------------------------------------------------------| 
G|--5-5-5---5-5-5---5-8-----5--6-6-6--6-6-5-5--5-5-8-8-6---------------------| 
D|----------------------6-8------------------------------8-6-----------------| 
A|---------------------------------------------------------------------------| 
E|---------------------------------------------------------------------------| 

I want to try and figure this out soon for the Holiday season. Thanks
Tabbed by: edlites413  
	  

Search Paypal
auto scroll beats size up size down change color hide chords drawings
tab show chords e-chords YouTube Clip e-chords hide all tabs e-chords go to top tab