Forfun

Cara Esperto

Forfun

tabs Expert expert

by  TOM PUNK

save to print version add songbook text version e-mail correct tuner
chordsukulelecavacokeyboardtabbassdrumsharmonicaflute Guitar Pro
close

there isn't a video lesson for this song

chords

Cara Esperto

	  		 
 (Riff 1) 
   
E|--------------------------------------------------------------------------------------------------------------------|  
B|--------------------------------------------------------------------------------------------------------------------|  
G|------4-4-4-4------------------9-9-9-9----------------------------------------------------------------------|  
D|------4-4-4-4----4-4-4-4----9-9-9-9-----4-4-4-4-----------------------------------------------------|  
A|------2-2-2-2----4-4-4-4----7-7-7-7-----4-4-4-4-----------------------------------------------------|  
E|---------------------2-2-2-2--------------------2-2-2-2-----------------------------------------------------|  
 
(Riff 2) 
 
E|--------------------------------------------------------------------------------------------------------------------|  
B|--------------------------------------------------------------------------------------------------------------------|  
G|------------------9-9-9-9-----4-4-4-4-----------------------------------------------------------------------|  
D|----2-2-2-2----9-9-9-9----4-4-4-4----4-4-4-4--------------------------------------------------------|  
A|----2-2-2-2----7-7-7-7----2-2-2-2----4-4-4-4--------------------------------------------------------|  
E|----4-4-4-4----------------------------------2-2-2-2--------------------------------------------------------|  
 
 
(Riff 3) 
 
E|-------------------------------------------------------------------------------------------------------------------|  
B|-------------------------------------------------------------------------------------------------------------------|  
G|---9-9-9-9--------------------4-4-4-4----------------------------------------------------------------------|  
D|----9-9-9-9----4-4-4-4----4-4-4-4----6-6-6-6--4-4------------------------------------------------|  
A|----7-7-7-7----4-4-4-4----2-2-2-2----6-6-6-6--4-4------------------------------------------------|  
E|-------------------2-2-2-2-------------------4-4-4-4--2-2------------------------------------------------|  
 
(Riff 4) 
 
E|------------------------------------------------------------------------------------------------------------------|  
B|------------------------------------------------------------------------------------------------------------------|  
G|---9-9-9-9--------------------4-4-4-4---------------------------------------------------------------------|  
D|----9-9-9-9----4-4-4-4----4-4-4-4----6-6-6-6--9-9--4-4----------------------------------------|  
A|----7-7-7-7----4-4-4-4----2-2-2-2----6-6-6-6--9-9--4-4----------------------------------------|  
E|-------------------2-2-2-2-------------------4-4-4-4--7-7--2-2----------------------------------------|  
 
 
_________________________________________________________________________ 
 
Intro: (Riff 1) 
 
(     Riff 1    ) 
 
hoje tenho a vida que sempre quis,  
mas será que sou feliz?  
acho que nunca saberei  
garotas ligando e correndo atrás   
já não me satisfazem mais  
  
(    Riff  2)       
it´s not ok  
sinto falta de coisas que perdi,  
do lugar onde eu nasci, do colégio que estudei  
amigos vão sem se despedir  
e você já não me faz sorrir, e hoje eu sei 
 ( Riff  3  ) 
que agora eu, que sempre me achei um cara esperto,  
quando vejo você por perto 
 perco a fala e sinto calafrios 
(Riff 4)  
e não paro de questionar sobre as voltas que a vida dá  
 e como tudo mudou de uns tempos pra cá  
  
( Riff 1 ) 
(tudo abafado)  
(Riff 1) 
não sei por que minhas pernas tremem e eu perco o ar  
quando pego o elevador  
você mora no décimo primeiro andar  
no fim do corredor  
  
(Riff 1)           
e eu finjo que tanto faz, por mim tá tudo bem  
será que viro o boné pra trás ou fico sem?  
as flores são legais, o meu cartão também  
mas quando toco a campainha e você vem... 
( Riff 3 )  
eu vejo que eu, que sempre me achei um cara esperto,  
quando vejo você por perto  
perco a fala e sinto calafrios 
(Riff 4)  
e não paro de questionar sobre as voltas que a vida dá  
e como tudo mudou e sempre vai mudar  
  
 

		  

See also:

tabs CPM 22 - Coragem tabs Garage Fuzz - A Mutt Running To Nowhere tabs CPM 22 - 1 minuto para o fim do mundo (solo inicial) tabs Garage Fuzz - Embedded Needs tabs CPM 22 - O Mundo Dá Voltas tabs CPM 22 - Regina Let's Go
e-chords

Other versions:

tabs Forfun - Cara Esperto
auto scroll beats size up size down change color hide chords drawings
tab show chords e-chords YouTube Clip e-chords hide all tabs e-chords go to top tab

share