Forfun

Cara Esperto

Forfun

bass Beginner beginner

by  CINHO PUNK 182

save to print version add songbook text version e-mail correct tuner
chordsukulelecavacokeyboardtabbassdrumsharmonicaflute Guitar Pro
close

there isn't a video lesson for this song

chords

Cara Esperto

	  		Mas No Fundo Já Sabia.... 
G|---------| 
D|---------| 
A|---------| 
E|-0~--2~--| 
 
  
G|-------------------------------------| 
D|-------------------------------------| 2X 
A|-2222222222--------------------------| 
E|-----------22222222-00000000-2222222-| 
 
Hoje tenho a vida que sempre quis... 
G|----------------------------------------------------------------| 
D|----------------------------------------------------------------| 
A|-22-222-222-222-2-----------------------------------------------| 
E|-----------------22-222-222-222-000-000-000-000-222-222-222-222-| 
 
Garotas ligando e correndo atras... 
G|----------------------------------------------------| 
D|----------------------------------------------------| 
A|-222222222222---------------------------------------| 
E|-------------222222222222-0000000000000-22222222222-| 
 
It's Not Ok 
G|-------------------------------------------------| 
D|-------------------------------------------------| 2X 
A|----------------------22222222222----------------| 
E|-444444444-0000000000-------------2222222222-2-2-| 
 
Que agora eu que sempre me achei um cara esperto... 
G|--------------------------------------------------| 
D|--------------------------------------------------| 
A|------------------------2222-1111-----------------| 
E|-00000000000-2222222222-----------444444444--2--2-| 
 
E não paro de questionar... 
G|-------------------------------| 
D|-------------------------------| 
A|-------------------------------| 
E|-00000000000-222222222--0~--2~-| 
 
Sobre as voltas que a vida da 
G|-----------------------------------| 
D|-----------------------------------| 
A|-2222-1111-------------------------| 
E|-----------44444-2222-00000-2~--0~-| 
 
G|----------------------------------------| 
D|----------------------------------------| 2X 
A|-2222222222-----------------------------| 
E|------------2222222222-00000000-2222222-| 
 
E eu finjo que tanto faz... 
G|---------------------------------------| 
D|---------------------------------------| 2X 
A|-2222-1111-----------------------------| 
E|-----------4444444-222222-000000-22222-| 
 
Eu vejo que eu que sempre me achei um cara esperto... 
G|--------------------------------------------------| 
D|--------------------------------------------------| 2X 
A|------------------------2222-1111-----------------| 
E|-00000000000-2222222222-----------444444444--2--2-| 
 
Sobre as voltas que a vida da 
G|-----------------------------------| 
D|-----------------------------------| 
A|-2222-1111-------------------------| 
E|-----------44444-2222-00000-2~--0~-| 
 
 
 
By: [email protected] 

		  

See also:

bass Anti-Flag - Anti Violent bass Blind Pigs - Amanhã não vai mudar bass CPM 22 - Um minuto para o fim do mundo-(intro) bass Tequila Baby - 51 bass Nx Zero - Apenas um olhar bass Anti-Flag - Angry Young And Poor (ver. 2)
e-chords

Other versions:

bass Forfun - Cara Esperto
auto scroll beats size up size down change color hide chords drawings
tab show chords e-chords YouTube Clip e-chords hide all tabs e-chords go to top tab

share