Five For Fighting

100 years (intro)

Five For Fighting

tabs Beginner beginner

by  ROUPLC

save to print version add songbook text version e-mail correct tuner
chordsukulelecavacokeyboardtabbassdrumsharmonicaflute Guitar Pro
close

there isn't a video lesson for this song

chords

100 years (intro)

	  		This is only the intro and first first verse of the song! 
 
 
E---3--3-------------3--3-----------------3-3-------------0----------| 
B--------0-1-1-0-1-3------0-1-1-0-1-3-1-0-----3-0-0-0-1-3--0-0-0-0---| 
G------------------------------------------------------------------2-| 
D--------------------------------------------------------------------| 
A--------------------------------------------------------------------| 
E--------------------------------------------------------------------| 
 
 
that is the intro to the song and the first verso pretty much goes the same 
 
3-3-------------3-3-----------------3-3-----------0---------| 
 -- 0-1-1-0-1-3-----0-1-1-0-1-3-1-0----3-0-0-0-1-3--0-0-0---| 
----------------------------------------------------------2-| 
------------------------------------------------------------| 
------------------------------------------------------------| 
------------------------------------------------------------| 

		  

See also:

tabs Blur - Song#2 Correct tabs Oasis - DonīT Go Away tabs Arctic Monkeys - Old Yellow Bricks tabs Arctic Monkeys - Knee Socks tabs Stone Temple Pilots - Sour Girl tabs Jethro Tull - To Cry You A Song
e-chords

Other versions:

tabs The Cure - 100 years tabs Five For Fighting - 100 Years tabs Five For Fighting - 100 years (intro)
auto scroll beats size up size down change color hide chords drawings
tab show chords e-chords YouTube Clip e-chords hide all tabs e-chords go to top tab

share