Five Finger Death Punch

American Capitalist

Five Finger Death Punch

tabs Intermediate intermediate

by  TERCMORAES

save to print version add songbook text version e-mail correct tuner
chordsukulelecavacokeyboardtabbassdrumsharmonicaflute Guitar Pro
close

there isn't a video lesson for this song

chords

American Capitalist

	  		
Tuning:  B  E  A  D  F#  B  

Intro: 
x4 
|-----------------------------|------------------------------| 
|-----------------------------|------------------------------| 
|-----------------------------|------------------------------| 
|-------------5-5-------------|------------------------------| 
|2----------2-----------------|2-------------2\5-865865865-5-| 
|0-00000000-0-----53205320530-|0-53205320530-----------------| 
   ........       ...........    ...........     ......... 

Verse 1: 
x4 
|--------------------------------| 
|--------------------------------| 
|--------------------------------| 
|--------------------------------| 
|2---6-5-6-5---2---6-5-6-5-8-7-6-| 
|0---4-3-4-3---0---4-3-4-3-------| 
     . . . .       . . . . 

Chorus 1: 
x2 
Jason Hook 
|----------------------------------------| 
|----------------------------------------| 
|----------------------------------------| 
|--------------------5---------7---------| 
|2-------------------3---------5---------| 
|0---------------------------------------| 

Zoltan Bathory 
|----------------------------------------| 
|----------------------7-6-7-6---7-6-7-6-| 
|--7-6-7-6---7-6-7-6-5---------5---------| 
|5---------5-----------------------------| 
|----------------------------------------| 
|----------------------------------------| 

Verse Interlude: 
x4 
|-----------------|-----------------| 
|-----------------|-----------------| 
|-----------------|-----------------| 
|-----------------|-----------------| 
|2-2--------------|2----------------| 
|0-0-532053205320-|0---532053205320-| 
 . . ............  .   ............  

Verse 2: 
x4 
|--------------------------------| 
|--------------------------------| 
|--------------------------------| 
|--------------------------------| 
|2---6-5-6-5---2---6-5-6-5-8-7-6-| 
|0---4-3-4-3---0---4-3-4-3-------| 
     . . . .       . . . . 

Chorus 2: 
x2 
Jason Hook 
|----------------------------------------| 
|----------------------------------------| 
|----------------------------------------| 
|--------------------5---------7---------| 
|2-------------------3---------5---------| 
|0---------------------------------------| 

Zoltan Bathory 
|----------------------------------------| 
|----------------------7-6-7-6---7-6-7-6-| 
|--7-6-7-6---7-6-7-6-5---------5---------| 
|5---------5-----------------------------| 
|----------------------------------------| 
|----------------------------------------| 

Pre-Solo 
x4 
|-----------------|-----------------| 
|-----------------|-----------------| 
|-----------------|-----------------| 
|-----------------|-----------------| 
|2-2--------------|2----------------| 
|0-0-532053205320-|0---532053205320-| 
 . . ............  .   ............  

SOLO (Jason Hook): 
I believe he does some kind of slide or bend  
to start off the solo but I have no idea how  
he does it so just improvise or finish the previous rhythm.  

|-------------------------| 
|-------------------------| 
|11b-11b-14b-17b-17b-17b/-| 
|-------------------------| 
|-------------------------| 
|-------------------------| 

x3 
|------------------------------------| 
|15-14-12-15-14-12-15-14-12-15-14-12-| 
|------------------------------------| 
|------------------------------------| 
|------------------------------------| 
|------------------------------------| 

|------------------------------| 
|14-14-14-14-14-14-15-14-14-15-| 
|------------------------------| 
|------------------------------| 
|------------------------------| 
|------------------------------| 

|---------------------------------------| 
|14-14-14-14-14-14-15-14-14-15-14-14-15-| 
|---------------------------------------| 
|---------------------------------------| 
|---------------------------------------| 
|---------------------------------------| 

|------------------------------------------------| 
|14-14-14-14-14-14-15-14-14-14-14-15-14-15-14-12-| 
|------------------------------------------------| 
|------------------------------------------------| 
|------------------------------------------------| 
|------------------------------------------------| 

|-----------------------------------------------| 
|14-15-14-12-15b--------------------------------| 
|----------------15-14-12-15-14-12-15-14-12-15b-| 
|-----------------------------------------------| 
|-----------------------------------------------| 
|-----------------------------------------------| 

x2 
|------------------------------------| 
|12-------12-------12-------12-------| 
|---14-15----14-15----14-15----14-15-| 
|------------------------------------| 
|------------------------------------| 
|------------------------------------| 

|---------------------------------------------| 
|15-14-12-------------------------------------| 
|---------15-14-12-16-15-13-------------------| 
|---------------------------15-14-12-16-15-13-| 
|---------------------------------------------| 
|---------------------------------------------| 

|---------------------------------------| 
|---------------------------------------| 
|12-14-15-13-15-16----------12-------12-| 
|------------------12-14-15-------------| 
|------------------------------13-13----| 
|---------------------------------------| 

|--------------------------------| 
|--------15b-12-------12-15b-15b-| 
|14b-17b--------14-15------------| 
|--------------------------------| 
|--------------------------------| 
|--------------------------------| 

|15-17-19-17-15-17-19-17-15-17-19-17-15-| 
|---------------------------------------| 
|---------------------------------------| 
|---------------------------------------| 
|---------------------------------------| 
|---------------------------------------| 

|13-15-17-15-13-15-17-15-13-15-17-15-13-| 
|---------------------------------------| 
|---------------------------------------| 
|---------------------------------------| 
|---------------------------------------| 
|---------------------------------------| 

|12-12-12-12-13-15-14-15-17-16-17-19-19b~-| 
|-----------------------------------------| 
|-----------------------------------------| 
|-----------------------------------------| 
|-----------------------------------------| 
|-----------------------------------------| 

|------------------------------17---------| 
|18b-17b-15b-17b-18b~----14-15----15-14b~-| 
|---------------------17------------------| 
|-----------------------------------------| 
|-----------------------------------------| 
|-----------------------------------------| 

|-------------------------------------------------------| 
|-------------------------------------------------12b~~-| 
|8-9-11b-10-11-12-13b~----------------------------------| 
|----------------------17-15-14-17-15-14-17-15-14-------| 
|-------------------------------------------------------| 
|-------------------------------------------------------| 

Solo Rhythm (Zoltan Bathory): 
x8 
|--------------------------------| 
|--------------------------------| 
|--------------------------------| 
|--------------------------------| 
|2-------2-------2---------------| 
|0---000-0---000-0-0000000000000-| 
     ...     ...   ............. 

Then, during that final bending section of Solo, play this like the outro. 
x2 
|----------------------------------------| 
|----------------------7-6-7-6---7-6-7-6-| 
|--------------------5---------5---------| 
|----------------------------------------| 
|2---------------------------------------| 
|0---------------------------------------| 

Chorus 3: 
x4 
*First Time Jason Holds the last solo bend instead of playing the  B5 * 
Jason Hook 
|----------------------------------------| 
|----------------------------------------| 
|----------------------------------------| 
|--------------------5---------7---------| 
|2-------------------3---------5---------| 
|0---------------------------------------| 

Zoltan Bathory 
|----------------------------------------| 
|------------------------6-7-6-----7-6-7-| 
|--7-6-7-6---7-6-7-6---7---------6-------| 
|5---------5---------5---------5---------| 
|----------------------------------------| 
|----------------------------------------| 

Interlude to Outro: 
x4 
|-----------------|-----------------| 
|-----------------|-----------------| 
|-----------------|-----------------| 
|-----------------|-----------------| 
|2-2--------------|2-2--------------| 
|0-0-532053205320-|0-0-532053205320-| 
 . . ............  . . ............  

Outro 
Basically its a drum solo. The guitars play a version of the chorus.  
Listen to song for rhythm. 
x2 
Jason Hook 
|----------------------------------------| 
|----------------------------------------| 
|----------------------------------------| 
|--------------------5---------7---------| 
|2-------------------3---------5---------| 
|0---------------------------------------| 

Zoltan Bathory 
|----------------------------------------| 
|----------------------7-6-7-6---7-6-7-6-| 
|--------------------5---------5---------| 
|----------------------------------------| 
|2---------------------------------------| 
|0---------------------------------------| 

Let This Last Chord Ring 
|----------------| 
|----------------| 
|----------------| 
|----------------| 
|2---------------| 
|0---------------|  
		  

See also:

tabs Rainbow - Since You've Been Gone tabs Slipknot - Vermilion Pt.2 tabs Slipknot - (sic) tabs Pantera - This Love tabs Motley Crue - Home Sweet Home tabs Avenged Sevenfold - Shepherd Of Fire
e-chords

Other versions:

tabs Five Finger Death Punch - American Capitalist
auto scroll beats size up size down change color hide chords drawings
tab show chords e-chords YouTube Clip e-chords hide all tabs e-chords go to top tab

share