Five Finger Death Punch

Jekyll And Hyde

Five Finger Death Punch

tabs

by  JESSGOMES

save to print version add songbook text version e-mail correct tuner
chordsukulelecavacokeyboardtabbassdrumsharmonicaflute Guitar Pro
close

there isn't a video lesson for this song

chords

Jekyll And Hyde

	  		

Guitars 1 and 2 (w/ dist) 

                                      
 B|------------------------|------------------------|------------------------|------------------------| 
F#|------------------------|------------------------|------------------------|------------------------| 
 D|------------------------|------------------------|------------------------|------------------------| x2 
 A|------------------------|------------------------|------------------------|------------------------| 
 E|------------------------|-0--0--0--2--2----------|------------------------|-0--0--0--2--2--2-------| 
 A|-4--4--4--4--4--4--2--4-|----------------5--5--5-|-4--4--4--4--4--4--2--4-|-------------------5--5-| 
       *  *  *  *  *  *  *   *  *  *  *  *  *  *  *   *  *  *  *  *  *  *  *   *  *  *  *  *  *  *  * 


Guitars 1 and 2 (w/ dist) 

                                      
 B|------------------------|------------------------|------------------------|------------------------| 
F#|------------------------|------------------------|------------------------|------------------------| 
 D|------------------------|------------------------|------------------------|------------------------| 
 A|------------------------|------------------------|------------------------|------------------------| 
 E|------------------------|-0--0--0--2--2----------|------------------------|-0--0--0--2--2--2-------| 
 A|-4--4--4--4--4--4--2--4-|----------------5--5--5-|-4--4--4--4--4--4--2--4-|-------------------5--5-| 
       *  *  *  *  *  *  *   *  *  *  *  *  *  *  *   *  *  *  *  *  *  *  *   *  *  *  *  *  *  *  * 


                                        
 B|------------------------|------------------------|------------------------|----------0-------0---| 
F#|------------------------|------------------------|------------------------|----------5b--r---5---| 
 D|------------------------|------------------------|------------------------|----------------------| 
 A|------------------------|------------------------|------------------------|----------------------| 
 E|------------------------|-0--0--0--2--2----------|------------------------|-0--0--0--------------| 
 A|-4--4--4--4--4--4--2--4-|----------------5--5--5-|-4--4--4--4--4--4--2--4-|----------------------| 
       *  *  *  *  *  *  *   *  *  *  *  *  *  *  *   *  *  *  *  *  *  *  *   *  *  *  


Guitars 1 and 2 (w/ dist) 

                               
 B|--------------------|-----------------|--------------------|-------------| 
F#|--------------------|-----------------|--------------------|-------------| 
 D|--------------------|-----------------|--------------------|-------------| 
 A|-4---4------------4-|--4------------5-|-4---4------------4-|--4----------| 
 E|-4---4---2--2--2--4-|--4---2--2--2--5-|-4---4---2--2--2--4-|--4----------| 
 A|-4---4---2--2--2--4-|--4---2--2--2--5-|-4---4---2--2--2--4-|--4----------| 
            *  *  *           *  *  *              *  *  *  

                                 V V V V 
 B|--------------------|-----------------|--------------------|----------------------| 
F#|--------------------|-----------------|--------------------|----------------------| 
 D|--------------------|-----------------|--------------------|----------------------| 
 A|-4---4------------4-|--4------------5-|-4---4------------4-|--4-------------------| 
 E|-4---4---2--2--2--4-|--4---2--2--2--5-|-4---4---2--2--2--4-|--4---5-4-2-----------| 
 A|-4---4---2--2--2--4-|--4---2--2--2--5-|-4---4---2--2--2--4-|--4---------5-4-2-0-2-| 
            *  *  *           *  *  *              *  *  *           * * * * * * * *  

                               
 B|--------------------|-----------------|--------------------|-------------| 
F#|--------------------|-----------------|--------------------|-------------| 
 D|--------------------|-----------------|--------------------|-------------| x2 
 A|-4---4------------4-|--4------------5-|-4---4------------4-|--4----------| 
 E|-4---4---2--2--2--4-|--4---2--2--2--5-|-4---4---2--2--2--4-|--4----------| 
 A|-4---4---2--2--2--4-|--4---2--2--2--5-|-4---4---2--2--2--4-|--4----------| 
            *  *  *           *  *  *              *  *  *  


Guitar 1 (w/ dist) 

                                    
 B|------------------------|------------------------| 
F#|------------------------|------------------------| 
 D|------------------------|------------------------| 
 A|------------------------|------------------------| 
 E|------------------------|-0--0--0--2--2----------| 
 A|------------------------|----------------5--5--5-| 
                             *  *  *  *  *  *  *  * 

Guitars 1 and 2 (w/ dist) 

                    
 B|------------------------|------------------------| 
F#|------------------------|------------------------| 
 D|------------------------|------------------------| 
 A|------------------------|------------------------| 
 E|------------------------|-0--0--0--2--2--2-------| 
 A|-4--4--4--4--4--4--2--4-|-------------------5--5-| 
    *  *  *  *  *  *  *  *   *  *  *  *  *  *  *  *  

                                      
 B|------------------------|------------------------|------------------------|------------------------| 
F#|------------------------|------------------------|------------------------|------------------------| 
 D|------------------------|------------------------|------------------------|------------------------| x2 
 A|------------------------|------------------------|------------------------|------------------------| 
 E|------------------------|-0--0--0--2--2----------|------------------------|-0--0--0--2--2--2-------| 
 A|-4--4--4--4--4--4--2--4-|----------------5--5--5-|-4--4--4--4--4--4--2--4-|-------------------5--5-| 
       *  *  *  *  *  *  *   *  *  *  *  *  *  *  *   *  *  *  *  *  *  *  *   *  *  *  *  *  *  *  * 

                             
 B|------------------------|------------------------|------------------------| 
F#|------------------------|------------------------|------------------------| 
 D|------------------------|------------------------|------------------------| 
 A|------------------------|------------------------|------------------------| 
 E|------------------------|-0--0--0--2--2----------|------------------------| 
 A|-4--4--4--4--4--4--2--4-|----------------5--5--5-|-4--4--4--4--4--4--2--4-| 
       *  *  *  *  *  *  *   *  *  *  *  *  *  *  *   *  *  *  *  *  *  *  *   


Guitars 1 and 2 (w/ dist) 

                               
 B|--------------------|-----------------|--------------------|----------------------| 
F#|--------------------|-----------------|--------------------|----------------------| 
 D|--------------------|-----------------|--------------------|----------------------| 
 A|-4---4------------4-|--4------------5-|-4---4------------4-|--4-------------------| 
 E|-4---4---2--2--2--4-|--4---2--2--2--5-|-4---4---2--2--2--4-|--4-------------------| 
 A|-4---4---2--2--2--4-|--4---2--2--2--5-|-4---4---2--2--2--4-|--4-------------------|\ 
            *  *  *           *  *  *              *  *  *                             \ 
                                                                                        x2  
                                 V V V V   / 
 B|--------------------|-----------------|--------------------|----------------------|/ 
F#|--------------------|-----------------|--------------------|----------------------| 
 D|--------------------|-----------------|--------------------|----------------------| 
 A|-4---4------------4-|--4------------5-|-4---4------------4-|--4-------------------| 
 E|-4---4---2--2--2--4-|--4---2--2--2--5-|-4---4---2--2--2--4-|--4---5-4-2-----------| 
 A|-4---4---2--2--2--4-|--4---2--2--2--5-|-4---4---2--2--2--4-|--4---------5-4-2-0-2-| 
            *  *  *           *  *  *              *  *  *           * * * * * * * *  


Guitars 1 and 2 (w/ dist) 

             V            V            V            V --| 
 B|------------------------|------------------------|------------------------|------------------------| | 
F#|------------------------|------------------------|------------------------|------------------------| | 
 D|------------------------|------------------------|------------------------|------------------------| | 
 A|------------------------|------------------------|------------------------|-------------------4--6-| | 
 E|------------11--7-------|-7--------9--------9--5-|------------11--7-------|-7--------9-------------| | 
 A|-0------0----------0--0-|----0--0-----0--0-------|-0------0----------0--0-|----0--0-----0--0-------| | 
                      *  *      *  *     *  *                           *  *      *  *     *  *         | 
                                                                                                        | x2 
                                                                  | 
 B|---------0--0--0----|------0--0--0--0-|---------0--0--0----|----------------|                        | 
F#|---------5--5--5----|------5--5--5--5-|---------5--5--5----|----------------|                        | 
 D|--------------------|-----------------|--------------------|----------------|                        | 
 A|-4---4------------4-|--4--------------|-5---4------------4-|--4-------------|                        | 
 E|-4---4------------4-|--4--------------|-5---4------------4-|--4-------------|                        | 
 A|-4---4------------4-|--4--------------|-5---4------------4-|--4---2b--------|                        | 
                                                                             ---------------------------| 

              
 B|--------------------|-------------|-------------|-------------| 
F#|--------------------|-------------|-------------|-------------| 
 D|--------------------|-------------|-------------|-------------| 
 A|-4---4------------4-|--4----------|-------------|-------------| 
 E|-4---4---2--2--2--4-|--4----------|-------------|-------------| 
 A|-4---4---2--2--2--4-|--4----------|-------------|-------------| 
            *  *  *  

                                           V V V V 
 B|--------------------|-------------|-------------|---------------------| 
F#|--------------------|-------------|-------------|---------------------| 
 D|--------------------|-------------|-------------|---------------------| 
 A|-4---4------------4-|--4----------|-------------|---------------------| 
 E|-4---4---2--2--2--4-|--4----------|-------------|-----5-4-2-----------| 
 A|-4---4---2--2--2--4-|--4----------|-------------|-----------5-4-2-0-2-| 
            *  *  *                                      * * * * * * * * 

                               
 B|--------------------|-----------------|--------------------|-------------| 
F#|--------------------|-----------------|--------------------|-------------| 
 D|--------------------|-----------------|--------------------|-------------| x2 
 A|-4---4------------4-|--4------------5-|-4---4------------4-|--4----------| 
 E|-4---4---2--2--2--4-|--4---2--2--2--5-|-4---4---2--2--2--4-|--4----------| 
 A|-4---4---2--2--2--4-|--4---2--2--2--5-|-4---4---2--2--2--4-|--4----------| 
            *  *  *           *  *  *              *  *  *   


Guitars 1 and 2 (w/ dist) - RHYTHM FOR SOLO 

             V            V            V            V --| 
 B|------------------------|------------------------|------------------------|------------------------| | 
F#|------------------------|------------------------|------------------------|------------------------| | 
 D|------------------------|------------------------|------------------------|------------------------| | 
 A|------------------------|------------------------|------------------------|-------------------4--6-| | 
 E|------------11--7-------|-7--------9--------9--5-|------------11--7-------|-7--------9-------------| | 
 A|-0------0----------0--0-|----0--0-----0--0-------|-0------0----------0--0-|----0--0-----0--0-------| | 
                      *  *      *  *     *  *                           *  *      *  *     *  *         | 
                                                                                                        | x2 
                                                                  | 
 B|---------0--0--0----|------0--0--0--0-|---------0--0--0----|----------------|                        | 
F#|---------5--5--5----|------5--5--5--5-|---------5--5--5----|----------------|                        | 
 D|--------------------|-----------------|--------------------|----------------|                        | 
 A|-4---4------------4-|--4--------------|-5---4------------4-|--4-------------|                        | 
 E|-4---4------------4-|--4--------------|-5---4------------4-|--4-------------|                        | 
 A|-4---4------------4-|--4--------------|-5---4------------4-|--4---2b--------|                        | 
                                                                             ---------------------------| 


Guitars 1 and 2 (w/ dist) 

              
 B|---------0--0--0----|----------------| 
F#|---------5--5--5----|----------------| 
 D|--------------------|----------------| 
 A|-5---4------------4-|--4-------------| 
 E|-5---4------------4-|--4-------------| 
 A|-5---4------------4-|--4-------------| 
		  

See also:

tabs Manowar - Battle Hymn tabs Pantera - Cemetery Gates tabs Pantera - Cowboys from hell (intro) tabs Marilyn Manson - Coma White (Acoustic) tabs Pantera - This Love tabs Seether - Careless Whisper
e-chords

Other versions:

tabs Five Finger Death Punch - Jekyll And Hyde
auto scroll beats size up size down change color hide chords drawings
tab show chords e-chords YouTube Clip e-chords hide all tabs e-chords go to top tab

share