Fiona Apple

home > Fiona Apple

Shadowboxer Tab

Fiona Apple

Difficulty: nolevelnolevel

by gustsilva

tuner correct add songbook print version text version save to e-mail
chordsukulelecavacokeyboardtabbassdrumsharmonicsflute Guitar Pro
chords

Shadowboxer

  		 
 

intro and verse 
e-----------------------------------------0-----------|-- 
B---------3------------3------------3-----3-----3-----|-- 
G---------4-2h4--------4-2h4--------1-----------1-----|-- 
D-------4------------4--------------------------------|-- 
A--2------------0-----------------2-----------2-----0-|2... 
E----------------------------0----------0---------2---|-- 

bridge 
e---------------------------------------------------|-- 
B---------5--5--------3--3--------2--2--------2x----|-- 
G---------6--6--------4--3--------2--2--------2x----|--   3 times 
D-------6----6------4----4--------4--2--------4x--6-|-- 
A--4-----------2----------------4-------------------|4... 
E--------------------------2-----------2----2-------|-- 

e---------------------------------------------------|--------------------------| 
B---------5--5--------3--3--------3--3--------5--5--|-------4----4----4--etc.--| 
G---------6--6--------4--3--------4--4--------6--5--|-------2----2----2--strum-| 
D-------6----6------4----4------4----4------6----6--|-----4-4----4----4--------| 
A..4-----------2-----------0-----------4------------|2---------2----2----------| 
E---------------------------------------------------|--------------------------| 

Chorus 
e------------------------------------------------------|--- 
B---------2------------2------------2------------7-----|--- 
G---------2---2--------2------------2------------5---5-|--- 
D-------2-2-2--------2-----2------2-----2------7---7---|--- 
A--0------------5--------5---4--------4---5------------|0... 
E------------------------------------------------------|--- 
or alternatively 
e------------------------------------------------------|--- 
B---------2------------2------------2------------1-----|--- 
G---------2---2--------2------------2------------2---2-|--- 
D-------2-2-2--------2-----2------2-----2------0-----0-|--- 
A--0------------5--------5---4--------4---3--------3---|0... 
E------------------------------------------------------|---  
	  

Search Paypal
auto scroll beats size up size down change color hide chords drawings
tab show chords e-chords YouTube Clip e-chords hide all tabs e-chords go to top tab