Finch

The New Kid

Finch

tabs

save to print version add songbook text version e-mail correct tuner
chordsukulelecavacokeyboardtabbassdrumsharmonicaflute Guitar Pro
close

there isn't a video lesson for this song

chords

The New Kid

	  		The bridge for guitar one is basically right. just play those three notes. 
 
Db tuning 
 
Guitar 1 
intro 
e------------------------------------ 
b------------------------------------ 
g--11-111111-1111-11-12-12121212-11-- x2 
d---x--x-x-x--x-x--x--x--x-x-x-x--x-- 
a---9--9-9-9--9-9--9/10-10101010--9-- 
d------------------------------------ 
 
e------ 
b------ 
g------ 
d--5~-- 
a--5~-- 
d--5~-- 
 
e------------------------------------ 
b------------------------------------ 
g--11-111111-1111-11-12-12121212-11-- x2 
d---x--x-x-x--x-x--x--x--x-x-x-x--x-- 
a---9--9-9-9--9-9--9/10-10101010--9-- 
d------------------------------------ 
 
e--------------- 
b--------------- 
g--7~--66-7/14-- 
d--5~--xx-x--x-- 
a--5~--44-5/12-- 
d--5~----------- 
 
chorus x2 
e------------------------------------ 
b------------------------------------ 
g--11-111111-1111-11-12-12121212-11-- x2 
d---x--x-x-x--x-x--x--x--x-x-x-x--x-- 
a---9--9-9-9--9-9--9/10-10101010--9-- 
d------------------------------------ 
 
e------------------------------ 
b------------------------------ 
g--7-6---7-6-----6666-7777/14-- 
d------7-----7---xxxx-xxxx--x-- 
a----------------4444-5555/12-- 
d------------------------------ 
 
verse 
e------------------------------------------ 
b--7/3-------5--------3---3-3/10-10-8-10b--graduately bend 
g----------2---2--------------------------- 
d------0-0-------0--0---0------------------ 
a------------------------------------------ 
d------------------------------------------ 
 
chorus x2 
verse 
chorus x2 
 
bridge 
 
repeat this octave 
e------------------------------ 
b------------------------------ 
g--11-------7-6---7-6---7-6---- x2 
d---x-----------7-----7-----7-- 
a---9-------------------------- 
d------------------------------ 
 
e----------------------------------- 
b--7*------------------------------- 
g-----7*---------9-----9--------7*-- 
d--------5h7---------7---7---------- 
a--------------5---5-------5-------- 
e------------0----------------0----- 
 
e---------------------- 
b--7*------------------ 
g-----7*---------9--9-- 
d--------5h7--------7-- 
a--------------5----5-- 
d------------0------0-- 
 
chorus x4 
 
on the last chorus 
e------------------------------------ 
b------------------------------------ 
g--11-111111-1111-11-12-12121212-11-- x2 
d---x--x-x-x--x-x--x--x--x-x-x-x--x-- 
a---9--9-9-9--9-9--9/10-10101010--9-- 
d------------------------------------ 
 
e---------------------------------- 
b---------------------------------- 
g--7-6---7-6-----6666-7777/14------ 
d------7-----7---xxxx-xxxx--x------ 
a----------------4444-5555/12--9~-- 
d---------------------------------- 
 
 
Guitar 2 
 
intro 
e---------------------------- 
b---------------------------- 
g---------------------------- 
d--0~~--------0~~--------5~-- 
a--0~~--------0~~--------5~-- 
d--0~~--------0~~--------5~-- 
 
e---------------------------- 
b---------------------------- 
g------------------------7~-- 
d--0~~--------0~~--------5~-- 
a--0~~--------0~~--------5~-- 
d--0~~--------0~~--------5~-- 
 
chorus x2 
e---------------------- 
b---------------------- 
g---------------------- 
d--00000000--00000000-- 
a--00000000--00000000-- 
d--00000000--00000000-- 
 
e--------------------------|--------- 
b--------------------------|--------- 
g------------6666-7777/14--|---------play this ending 
d--55555555--xxxx-xxxx--x--|---------the second time 
a--55555555--4444-5555/12--|--/12-9-- 
d--55555555----------------|--------- 
 
verse 
e------------------------------------------------------------------------ 
b------------------------------------------------------------------------ 
g------------------------------------------------------------------------ 
d------------------------------------------------------------------------ 
a--9999999999999999--5555555555555555------------------------------------ 
d--------------------------------------9999999999999999-5555555555555555- 
P.M...................................................................... 
 
chours x2 
verse 
chours x2 
 
bridge 
 
repeat these chords over 
e---------- 
b---------- 
g---------- x2 
d--9----5-- 
a--9----5-- 
d--9----5-- 
 
e------ 
b------nothing during this part 
g------ 
d------ 
a------ 
d------ 
 
chorus x4 
 
on the last chorus play this 
e---------------------- 
b---------------------- 
g---------------------- 
d--00000000--00000000-- 
a--00000000--00000000-- 
d--00000000--00000000-- 
 
e------------------------------ 
b------------------------------ 
g------------6666-7777/14------ 
d--55555555--xxxx-xxxx--x------ 
a--55555555--4444-5555/12--9~-- 
d--55555555-------------------- 
 

		  

Full key step upFull key step up
Half key step upHalf key step up
Half key step downHalf key step down
Full key step downFull key step down
hide glossary

See also:

tabs Deep Purple - Smoke on the Water (solo) tabs Billy Idol - White Wedding tabs The Beatles - All My Loving (Solo Real) tabs Coldplay - In My Place tabs The Rolling Stones - Angie tabs Fleetwood Mac - Albatross
e-chords

Other versions:

tabs Finch - The New Kid tabs Finch - The New Kid (ver. 2)
auto scroll beats size up size down change color hide chords drawings
tab show chords e-chords YouTube Clip e-chords hide all tabs e-chords go to top tab

share