Finch

Post Script

Finch

tabs

save to print version add songbook text version e-mail correct tuner
chordsukulelecavacokeyboardtabbassdrumsharmonicaflute Guitar Pro
close

there isn't a video lesson for this song

chords

Post Script

	  		Tabber - guitaris63/steven 
Tune - drop C# 
 
IM SAYING RIGHT NOW, THIS TAB IS ALMOST PERFECT, UNLIKE THE OTHER 
TABS THAT COULDNT EVEN GET THE INTRO RIGHT... 
 
 
Guitar 1: Intro x11 
|--------------------------------------------------| 
|--------------------------------------------------| 
|--77-66------77-66-----77-66----------------------| 
|--------77---------77-----------------------------| 
|--------------------------------------------------| 
|--------------------------------------------------| 
 
Guitar 2: Intro x2 
|------------------------------------------------------------------------------------| 
|------------------------------------------------------------------------------------| 
|--77-77-77-7-7-------14-14-14-14--14-14---14---14-14-14-14-14--14-14---14---14--997-| 
|--xx-xx-xx-x-x--------x--x--x--x---x--x----x----x--x--x--x--x---x--x----x----x--xxx-| 
|--55-55-55-5-5-------12-12-12-12--12-12---12---12-12-12-12-12--12-12---12---12--777-| 
|------------------------------------------------------------------------------------| 
 
 
Verse: Both guitars                  1st gtar 2nd gtar    1st     2nd     1st     2nd     1st     2nd 
|------------------------------|     |------|-----------|------|---------|-----|---------|-----|---------| 
|------------------------------|Play |------|-----------|------|---------|-----|---------|-----|---------| 
|-----77x----------------------|Once |------|-7777777---|-77x--|-7777777-|-----|-7777777-|-----|-7777777-| 
|-55x-77x-99x--7~-(pickscrape)-|     |--55x-|-xxxxxxx---|-77x--|-xxxxxxx-|-99x-|-xxxxxxx-|-77x-|-xxxxxxx-| 
|-55x-55x-99x--7~--------------|     |--55x-|-5555555---|-55x--|-5555555-|-99x-|-5555555-|-77x-|-5555555-| 
|-55x-----99x--7~--------------|     |--55x-|-----------|------|---------|-99x-|---------|-77x-|---------| 
                                     Note: When theres a 1st above the tab, that means first guitar and 
                                     2nd means second guitar 
 
Guitar 1: Chorus x2 
|-----------|   |--------------------------| 
|-----3-----|   |--------------------------| 
|---0---0---|   |--------------------------| 
|-4---------|x6 |--------------------------| 
|-----------|   |--0-4-5----0--4--5---0?4--| 
|-----------|   |--0-4-5----0--4--5---0-4--| 
 
Guitar 2: Chorus x2 
|-----------------------------|--------------------------| 
|-----------------------------|--------------------------| 
|-44444444----------44444444--|--------------------------| 
|-44444444-0000000--44444444--|--------------------------| 
|-22222222-0000000--22222222--|--0-4-5----0--4--5---0?4--| 
|----------0000000------------|--0-4-5----0--4--5---0-4--| 
 
 
(REPEAT INTRO PART) 
 
(REPEAT vERSE PART) 
 
(REPEAT CHORUS PART) 
note: at the end of the second chorus, let the last note ring. 
 
 
Guitar 1: Bridge Part 1 
|-------------------------------| 
|-------------------------------| 
|----7----7---7----0---0--------| Alot of 
|-44---44---4---55---55--5-4h5--|  times 
|-------------------------------| 
|-------------------------------| 
Note: I jammed my ear phones into my left ear, i could almost definatly say i hear a hammer on 
 
 
Guitar 2: Bridge Part 1 
|--------------------------------------| 
|--------------------------------------| 
|-7777-9999-11111111-12121212--(feed---| 
|-xxxx-xxxx--x-x-x-x--x-x-x-x---back)--| 
|-5555-7777--9-9-9-9-10101010----------| 
|--------------------------------------| 
 
Bridge Part 2: Both Guitars 
|------------------------------------|        |----------------------------------------------------| 
|------------------------------------|        |----------------------------------------------------| 
|------------------------------------|        |----------------------------------------------------|The 
|-0000000000000--44--4-0-55--4-0-----|Play x3 |-00000000000000--44--4-0-55--4-0--44--4-0-55-4-0-0~-|End 
|-0000000000000--44------55----------|        |-00000000000000--44------55-------44------55-----0~-| 
|-0000000000000--44------55----------|        |-00000000000000--44------55-------44------55-----0~-| 
 
You want more tabs, email me at [email protected] 
 

		  

See also:

tabs Deep Purple - Smoke on the Water (solo) tabs Billy Idol - White Wedding tabs The Beatles - All My Loving (Solo Real) tabs Coldplay - In My Place tabs The Rolling Stones - Angie tabs Fleetwood Mac - Albatross
e-chords

Other versions:

tabs Finch - Post Script tabs Finch - Post Script (ver. 2) tabs Trans-Siberian Orchestra - Post Script Midnight Clear
auto scroll beats size up size down change color hide chords drawings
tab show chords e-chords YouTube Clip e-chords hide all tabs e-chords go to top tab

share