Finch

What It Is To Burn

Finch

bass

save to print version add songbook text version e-mail correct tuner
chordsukulelecavacokeyboardtabbassdrumsharmonicaflute Guitar Pro
close

there isn't a video lesson for this song

chords

What It Is To Burn

	  		



 
 
Tabber: jcosley	
email: [email protected]

Tuning Db Ab Db Gb  aka C# G# C# F#

I'm sure I dont have the exact plucks down, but you can
get it down.

Intro/Chorus:
F#|-------------------------------------------------------------|
C#|-------------------------------------------------------------|
G#|---------------------------------2-2-2-2-2-2-2-2-2-2-2-2-2-2-|
C#|-0-0-0-0-0-0-0-0-0-0-0-0-0-0-0-0-----------------------------|

F#|-------------------------------------------------------------|
C#|-------------------------------------------------------------|
G#|-0-0-0-0-0-0-0-0-0-0-0-0-0-0-0-0-----------------------------|
C#|---------------------------------5-5-5-5-5-5-5-5-5-5-5-5-5-5-|

1st Verse:
F#|-------------------------------------------------------------|
C#|-------------------------------------------------------------|
G#|-5~~~~~---------4~~~~~---------------------------------------|
C#|------------------------------5~~~-----------5~~~-------5~~--|

1st Pre-Chorus Fill:
F#|-------------------------------------------|
C#|-------------------------------------------|
G#|-------------------------------------------|
C#|-7-7-7-7-7-7-7-7--7------------------------|

Chorus

2nd Verse:
F#|--------------------------------------------------------------------|
C#|--------------------------------------------------------------------|
G#|-5-5-5-5-5--5~~-----4---4-4------4----4-4----4----------------------|
C#|-------------------------------------------------5-----5-5-----5-5--|

F#|--------------------------------------------------------------------|
C#|--------------------------------------------------------------------|
G#|---------------------------------------5-5-5-5-5-----5-5----5-5-5-5-|
C#|-5-5-----5-5-5-5-5-5--------5-5-5-5---------------------------------|

F#|---------------------------------------------------------------------|
C#|-------6--6~~--------------------------------------------------------|
G#|-4---4---------------------------------------------------------------|
C#|-------------------5-----5-5-----5-5----5-5----5---5-5-5-5-5---5-5-5-|

F#|-------------------------------------------------------------------------|
C#|-------------------------------------------------------------------------|
G#|-5--555-555-555-55--4-444444-44444---------------------------------------|
C#|-----------------------------------5-555555555--55--777777777-7/16\7/21\-|

Bridge:
F#|-------------------------------------------------------------------------|
C#|-----------------------7-7-----------------------------------------------|
G#|-5--5-5-5--5-5-5-5-5-5-----5-5--------------------4-5-5------------------|
C#|--------------------------------4-4-4-4-4-4-4-4-4-------5--5-5-5--5-5-5--|

F#|--------------------------------------6--7\-----------------------------|
C#|-------------------------------/7--7--------------------7-----4---------|
G#|---------------0---0-0-0---0-0---------------5--555--55----55----55-----|
C#|-5-5-5---5-5------------------------------------------------------------|

F#|-------------------------------------------------------------------------|
C#|-------------------------------------------------------------------------|
G#|--------------------------------------------------4--4-4-4----4-4-4-4444-|
C#|-4--444--4-4-4-4-4-4-4-4-4-4-5-5-5--5-5-555-5-5-5------------------------|

Outro is same as Intro/Chorus


please rate

		  

See also:

bass The Beatles - Back In The USSR bass Queen - Another One Bites The Dust bass Eric Clapton - Cocain bass Eagles - Lyin' Eyes bass Eagles - Hotel California bass The Beatles - Come Together
e-chords

Other versions:

bass Finch - What It Is To Burn bass Finch - What It Is To Burn bass Finch - What It Is To Burn (ver. 2) bass Finch - What It Is To Burn (ver. 3) bass Finch - What It Is To Burn The Right Way bass Finch - What It Is To Burn Ver
auto scroll beats size up size down change color hide chords drawings
tab show chords e-chords YouTube Clip e-chords hide all tabs e-chords go to top tab

share