Finch

Perfection Through Silence

Finch

tabs

save to print version add songbook text version e-mail correct tuner
chordsukulelecavacokeyboardtabbassdrumsharmonicaflute Guitar Pro
close

there isn't a video lesson for this song

chords

Perfection Through Silence

	  		Tuning:Low to Hi (D,A,D,G,B,E) 
Tabbed by: Hellomemorylover 
 
Intro 
 
E---------|---------------------------|--------------------------------------------- 
B---------|---------------------------|--------------------------------------------- 
G--55~/8--|--8-----5------------------|--8------------------------------------------ 
D--55~/8--|--8-x32-5-x32-5-----6------|--x------------------------------------------ 
A--33~/6--|--6-----3-----5-x32-6-x32--|--6------------------------------------------ 
D---------|--------------5-----6------|--------------------------------------------- 
   start               X2                end on 
 
Verse A 
 
E----------------------------------------------------------------------------------- 
B----------------------------------------------------------------------------------- 
G--5-5----8-8-----8-7--------------------------------------------------------------- 
D--5-5--8-8-8-6-6-8-7--------------------------------------------------------------- 
A--3-3--8-6-6-6-6-6-5--------------------------------------------------------------- 
D-------8-----6-6------------------------------------------------------------------- 
 
Verse B 
 
E----------------------------------------------------------------------------------- 
B----------------------------------------------------------------------------------- 
G--5-----8-----------8-------------------------------------------------------------- 
D--5-x16-8-x16-6-----8-x16---------------------------------------------------------- 
A--3-----6-----6-x16-6-------------------------------------------------------------- 
D--------------6-------------------------------------------------------------------- 
 
Chorus X1 
 
E----------------------------------------------------------------------------------- 
B----------------------------------------------------------------------------------- 
G--8-----5-------------------------------------------------------------------------- 
D--8-x32-5-x32-5-----6-------------------------------------------------------------- 
A--6-----3-----5-x32-6-x32---------------------------------------------------------- 
D--------------5-----6-------------------------------------------------------------- 
    
Verse A 
 
E----------------------------------------------------------------------------------- 
B----------------------------------------------------------------------------------- 
G--5-5----8-8-----8-7--------------------------------------------------------------- 
D--5-5--8-8-8-6-6-8-7--------------------------------------------------------------- 
A--3-3--8-6-6-6-6-6-5--------------------------------------------------------------- 
D-------8-----6-6------------------------------------------------------------------- 
 
Verse B 
 
E----------------------------------------------------------------------------------- 
B----------------------------------------------------------------------------------- 
G--5-----8-----------8-------------------------------------------------------------- 
D--5-x16-8-x16-6-----8-x16---------------------------------------------------------- 
A--3-----6-----6-x16-6-------------------------------------------------------------- 
D--------------6-------------------------------------------------------------------- 
 
Chorus X2 
 
E----------------------------------------------------------------------------------- 
B----------------------------------------------------------------------------------- 
G--8-----5-------------------------------------------------------------------------- 
D--8-x32-5-x32-5-----6-------------------------------------------------------------- 
A--6-----3-----5-x32-6-x32---------------------------------------------------------- 
D--------------5-----6-------------------------------------------------------------- 
 
 
Bridge A 
 
E----------------------------------------------------------------------------------- 
B--------------------------------4-4-4-4-4-4-4-4------------------------------------ 
G--5-5-5-5-5-5-5-5-5-5-5-5-5-5-5-x-x-x-x-x-x-x-x-5-5-5-5-5-5-5-5-------------------- 
D--3-3-3-3-3-3-5-6-6-6-6-6-6-6-6-3-3-3-3-3-3-3-3-3-3-3-3-3-3-3-3-------------------- 
A--3-3-3-3-3-3-3-3-3-3-3-3-3-3-3-3-3-3-3-3-3-3-3-3-3-3-3-3-3-3-3-------------------- 
D----------------------------------------------------------------------------------- 
 |-----------------------------P.M.-----------------------------| 
 
Bridge B 
 
E-----------------------------------------------------------------|------------------ 
B-----------------------------------------------------------------|------------------ 
G--------------------------------8-8-8-8-8-8-8-8-5-5-5-5-5-5-5-5--|--x-x-x-x--------- 
D--3-3-3-3-3-3-5-6-6-6-6-6-6-6-6-8-8-8-8-8-8-8-8-5-5-5-5-5-5-5-5--|--x-x-x-x--------- 
A--3-3-3-3-3-3-5-6-6-6-6-6-6-6-6-6-6-6-6-6-6-6-6-3-3-3-3-3-3-3-3--|--x-x-x-x--------- 
D--3-3-3-3-3-3-5-6-6-6-6-6-6-6-6----------------------------------|------------------ 
                                                                    Before the chorus 
Chorus X2 
 
E----------------------------------------------------------------------------------- 
B----------------------------------------------------------------------------------- 
G--8-----5-------------------------------------------------------------------------- 
D--8-x32-5-x32-5-----6-------------------------------------------------------------- 
A--6-----3-----5-x32-6-x32---------------------------------------------------------- 
D--------------5-----6-------------------------------------------------------------- 
 
------------------------------------------------------------------------------------ 
Brasil Rules!! :) Deftones Rules!! INSIDE A LIE RULES! :) THANKZ! B?BARA TE AMO! 
------------------------------------------------------------------------------------ 
 

		  

See also:

tabs Deep Purple - Smoke on the Water (solo) tabs Billy Idol - White Wedding tabs The Beatles - All My Loving (Solo Real) tabs Coldplay - In My Place tabs The Rolling Stones - Angie tabs Fleetwood Mac - Albatross
e-chords

Other versions:

tabs Finch - Perfection Through Silence tabs Finch - Perfection Through Silence (ver. 2)
auto scroll beats size up size down change color hide chords drawings
tab show chords e-chords YouTube Clip e-chords hide all tabs e-chords go to top tab

share