Finch

Awake

Finch

tabs

save to print version add songbook text version e-mail correct tuner
chordsukulelecavacokeyboardtabbassdrumsharmonicaflute Guitar Pro
close

there isn't a video lesson for this song

chords

Awake

	  		Album- What It Is To Burn 
Tabbed By- Jordan Ramos 
C# Standard Tuning 
* Indicates Harmonics 
X Indicates Palm Mutes 
 
Guitar 1 
Intro  
d#|-------------------------------------------------------------| 
A#|-------------------------------------------------------------| 
F#|----9*---7*----7*--------7*-------7*-------------------------| 
C#|------9*----9*----7*--9*---7*--9*---7*-----------------------| 
G#|-------------------------------------------------------------| 
C#|-------------------------------------------------------------| 
 
Guitar 2 
D#|-------------------------------------------------------------| 
A#|-------------------------------------------------------------| 
F#|--4----7--7------4----7--7-----------------------------------| 
C#|--4----7--7------4----7--7-----------------------------------| 
G#|--2----5--5------2----5--5-----------------------------------| 
C#|-------------------------------------------------------------| 
 
Verse 
Guitar 1 
d#|-------------------------------------------------------------| 
A#|-------------7*------------------7*--------------------------| 
F#|----------5*------------------5*-----------------------------| 
C#|---5*--5*--------------5*--5*--------------------------------| 
G#|-------------------------------------------------------------| 
C#|-------------------------------------------------------------| 
 
Verse 
Guitar 2 
d#|-------------------------------------------------------------| 
A#|-------------------------------------------------------------| 
F#|----------------------------------9--------------------------| 
C#|----------11----0-0-0-0-0-----------0------------------------| 
G#|-------9--------0-0-0-0-0-------------0----------------------| 
C#|-----9----------0-0-0-0-0------------------------------------| 
		    X X X X X 
Chorus Guitar 1 
d#|-------------------------------------------------------------| 
A#|-------------------------------------------------------------| 
F#|-------------------------------------------------------------| 
C#|-4-4-4-4--5-5-5-5--0-0-0-0-----------------------------------| 
G#|-4-4-4-4--5-5-5-5--0-0-0-0-----------------------------------| 
C#|-4-4-4-4--5-5-5-5--0-0-0-0-----------------------------------| 
 
  
Guitar 2 
d#|-------------------------------------------------------------| 
A#|-------------------------------------------------------------| 
F#|----------------------11------11-11-12--12-9-----------------| 
C#|-4-4-4--5-5-5--0-0-0--x---0-0--x-x--x---x--x-----------------| 
G#|-4-4-4--5-5-5--0-0-0--9---0-0?-9-9--10-10--7-----------------| 
C#|-4-4-4--5-5-5--0-0-0------0-0--------------------------------| 
 
 ?now I?m Awake? 
d#|-------------------------------------------------------------| 
A#|-------------------------------------------------------------| 
F#|-------------------9------9----9-----------------------------| 
C#|---4---5------------0------0-----0---------------------------| 
G#|---4---5-----------------------------------------------------| 
C#|---4---5---------0----0-----0--------------------------------| 
 
Bridge 
Guitar 1 
d#|-------------------------------------------------------------| 
A#|-------------------------------------------------------------| 
F#|--4--2--0---------4-2-0---------4-2-0------------------------| 
C#|----------4-2-0----------4-2-0---------4-2-0-4-2-0-----------| 
G#|-------------------------------------------------------------| 
C#|-------------------------------------------------------------| 
 
Bridge  
Guitar 2 
d#|-------------------------------------------------------------| 
A#|-------------------------------------------------------------| 
F#|------------------9------------------------------------------| 
C#|------------11------0----------------------------------------| 
G#|-----9----------------0--------------------------------------| 
C#|---9---9-------0---------------------------------------------| 
 
Both Guitars 
?AWAKE!!? 
d#|-------------------------------------------------------------| 
A#|-------------------------------------------------------------| 
F#|-------------------------------------------------------------| 
C#|---9-9-9--9-9-9-9--0-0-0-------------------------------------| 
G#|---9-9-9--9-9-9-9--0-0-0-------------------------------------| 
C#|---9-9-9--9-9-9-9--0-0-0-------------------------------------| 
 

		  

See also:

tabs Deep Purple - Smoke on the Water (solo) tabs Billy Idol - White Wedding tabs The Beatles - All My Loving (Solo Real) tabs Coldplay - In My Place tabs The Rolling Stones - Angie tabs Fleetwood Mac - Albatross
e-chords

Other versions:

tabs Dashboard Confessional - Awake tabs Finch - Awake tabs The Doors - Awake tabs Seventh Day Slumber - Awake tabs Tycho - Awake tabs Finch - Awake (ver. 2)
auto scroll beats size up size down change color hide chords drawings
tab show chords e-chords YouTube Clip e-chords hide all tabs e-chords go to top tab

share