Finch

home > Finch

Anywhere But Here Tab

Finch

Difficulty: nolevelnolevel

by alyslima

tuner correct add songbook print version text version save to e-mail
chordsukulelecavacokeyboardtabbassdrumsharmonicsflute Guitar Pro
chords

Anywhere But Here

  		 

Tuning: C# G# C# F# A# D# 

First tab, not the best tab writer but I tried my best to tab it from Daniel's Guitar  
Lesson on Finch's 
YouTube channel. 


Intro (strum the 12th fret as many times as in the song, then slide down to 2nd fret and repeat) 

e|---------------------------------------------------------------------------| 
B|---------------------------------------------------------------------------| 
G|---------------------------------------------------------------------------| 
D|---------------------------------------------------------------------------| 
A|---------------------------------------------------------------------------| 
E|-2/12~---------------------------------------------------------------------| 

Verse (play each pattern 4 times) 

e|---------------------------------------------------------------------------| 
B|---------------------------------------------------------------------------| 
G|---0---0-------------------------------------------------------------------| 
D|--7---3----2p0---3p0-------------------------------------------------------| 
A|-5---1----3-----5----------------------------------------------------------| 
E|---------3-----5-----------------------------------------------------------| 

Re-intro 

e|---------------------------------------------------------------------------| 
B|---------------------------------------------------------------------------| 
G|---------------------------------------------------------------------------| 
D|---------------------------------------------------------------------------| 
A|---------------------------------------------------------------------------| 
E|-2/12~---------------------------------------------------------------------| 

Chorus (play each chord as many times as needed) 

e|---------------------------------------------------------------------------| 
B|---------------------------------------------------------------------------| 
G|-10--7--10--7--5--5--------------------------------------------------------| 
D|--0--0---0--0--0--0--------------------------------------------------------| 
A|--0--0---0--0--0--0--------------------------------------------------------| 
E|-12--5--12--5--3--7--------------------------------------------------------| 

Bridge (after 2nd Chorus, repeat this chord while pulling off on the A string 
with your middle finger and pinky, then do the bends on B and G strings) 
e|---------------------------------------------------------------------------| 
B|-6p8-----------------------------------------------------------------------| 
G|---------------------------------------------------------------------------| 
D|-7-7------------------------------10b--------------------------------------| 
A|-5-5------------------------------12b--------------------------------------| 
E|---------------------------------------------------------------------------| 

Song goes like this: 

Intro 
Verse 
Re-intro 
Chorus 
Re-Intro 
Verse 
Re-Intro 
Chorus 
Bridge 
Chorus 
Re-Intro 

************************************ 

| /   slide up 
| \   slide down 
| h   hammer-on 
| p   pull-off 
| ~   vibrato 
| +   harmonic 
| x   Mute note 
| b   Bend 
| pb  Pre-bend 
| br  Bend release 
| pbr Pre-bend release 
| brb Bend release bend 

************************************ 
	  

Full key step upFull key step up
Half key step upHalf key step up
Half key step downHalf key step down
Full key step downFull key step down
Search Paypal
auto scroll beats size up size down change color hide chords drawings
tab show chords e-chords YouTube Clip e-chords hide all tabs e-chords go to top tab