Felt

Red Indians

Felt

tabs

by  ADALGOMES

save to print version add songbook text version e-mail correct tuner
chordsukulelecavacokeyboardtabbassdrumsharmonicaflute Guitar Pro
close

there isn't a video lesson for this song

chords

Red Indians

	  		



MAIN FIGURE: 
Guitar I (Lawrence) 
e|-------0-----------------0-----------------0-----------------0----------|| 
B|-------------1-----------------1-----------------1-----------------1----|| 
G|-2-----------------2-----------------2-----------------2----------------|| x 20 
D|(2)---------------(2)---------------(2)---------------(2)---------------|| 
A|(0)---------------(0)---------------(0)---------------(0)---------------|| 
E|------------------------------------------------------------------------|| 
+ 
e|-------0-----------------0---------------0------------------------------| 
B|-------------1-----------------1--------1-------------------------------| 
G|-2-----------------2-------------------2--------------------------------| 
D|(2)---------------(2)-----------------2---------------------------------| 
A|(0)---------------(0)----------------0----------------------------------| 
E|------------------------------------------------------------------------| 



LEAD FIGURE: 
Guitar II (Maurice Deebank) 
e|------------------------------------------------------------------------|| 
B|------------------------------------------------------------------------|| 
G|------------------------------------------------------------------------|| x 2 
D|------------------------------------------------------------------------|| 
A|------------------------------------------------------------------------|| 
E|------------------------------------------------------------------------|| 
+ 
e|-5-----------------7-----------------8-----------------7----------------|| 
B|-------5-----------------5-----------------5-----------------5----------|| 
G|-------------5-----------------5-----------------5-----------------5----|| x 4 
D|------------------------------------------------------------------------|| 
A|------------------------------------------------------------------------|| 
E|------------------------------------------------------------------------|| 
+ 
e|-------------------7-----------------8-----------------7----------------|| 
B|-------------10----------10----------------10----------------10---------|| 
G|-------9-----------------------9-----------------9-----------------9----|| x 4 
D|-10---------------------------------------------------------------------|| 
A|------------------------------------------------------------------------|| 
E|------------------------------------------------------------------------|| 
+ 
e|------------------------------------------------------------------------| 
B|------------------------------------------------------------------------| 
G|------------------------------------------------------------------------| 
D|-10-9--10-9--10-9--7-----------5-----7--9--10----9-----7----------------| 
A|-------------------------7----------------------------------------------| 
E|------------------------------------------------------------------------| 
+ 
e|------------------------------------------------------------------------| 
B|----------------8--10----8h10p8-----------------------------------------| 
G|----------7--9-----------------9--7-------------------------------------| 
D|-10-9--10----------------------------10-9-----9--10-9--7----------------| 
A|-------------------------------------------10---------------------------| 
E|------------------------------------------------------------------------| 
+ 
e|-------------------0-----------------0-----------------0----------------|| 
B|-------------8-h10-------10----8-h10-------10----8-h10-------10---------|| 
G|-------9-----------------------------------------------------------9----|| x 4 
D|-7----------------------------------------------------------------------|| 
A|------------------------------------------------------------------------|| 
E|------------------------------------------------------------------------|| 
+ 
e|-5-----------------7-----------------8-----------------7----------------|| 
B|-------5-----------------5-----------------5-----------------5----------|| 
G|-------------5-----------------5-----------------5-----------------5----|| x 3 
D|------------------------------------------------------------------------|| 
A|------------------------------------------------------------------------|| 
E|------------------------------------------------------------------------|| 
+ 
e|-5-----------------5-----7-----8-------5--------------------------------| 
B|-------5------------------------------5---------------------------------| 
G|-------------5-----------------------5----------------------------------| 
D|------------------------------------------------------------------------| 
A|------------------------------------------------------------------------| 
E|------------------------------------------------------------------------| 
+ 
e|------------------------------------------------------------------------| 
B|------------------------------------------------------------------------| 
G|------------------------------------------------------------------------| 
D|------------------------------------------------------------------------| 
A|------------------------------------------------------------------------| 
E|------------------------------------------------------------------------| 



That's it. Please leave comments or suggestions, corrections, requests, etc. 
Cheers! 
-Bennyshambles78- 
		  

See also:

tabs Futures - 16 tabs Dan Croll - Home tabs Clarence Wijewardena - Malata Bambareku Se tabs Secrets - Sleep Well Darling tabs Roo Panes - Tiger Striped Sky tabs The Lumineers - Aint Nobodys Problem
e-chords

Other versions:

tabs Felt - Red Indians
auto scroll beats size up size down change color hide chords drawings
tab show chords e-chords YouTube Clip e-chords hide all tabs e-chords go to top tab

share