Fefe Dobson

Take Me Away

Fefe Dobson

tabs

by  SPOOKYZOMBIE

save to print version add songbook text version e-mail correct tuner
chordsukulelecavacokeyboardtabbassdrumsharmonicaflute Guitar Pro
close

there isn't a video lesson for this song

chords

Take Me Away

	  		Take me away   *   Fefe Dobson 
 
MAIN RIFF 
------------------------------------------------------------------------------ 
------------------------------------------------------------------------------ 
-6-6-6-6-6---------------------------6-6-6-6-6-------------------------------- 
-6-6-6-6-6---------7-7-7-7-7---------6-6-6-6-6---------7-7-7-7-7------7-------- 
-4-4-4-4-4--6-7-7--7-7-7-7-7--6-7-7--4-4-4-4-4--6-7-7--7-7-7-7-7--6-7---6----- 
-------------------5-5-5-5-5---------------------------5-5-5-5-5-------------- 
                                                                               
VERSE PART 1 
------------------------------------------------------------------------------ 
------------------------------------------------------------------------------ 
-6---------------6--------------------------------------6--------------------- 
-6---6--7-----9--6-----6--7-----6--9--xxxx--6--7-----9--6-----6--7-----6--9--- 
-4---6--7-----9--4-----6--7-----6--9--xxxx--6--7-----9--4-----6--7-----6--9--- 
-----4--5-----7--------4--5-----4--7--xxxx--4--5-----7--------4--5-----4--7--- 
                                                                               
VERSE PART 2                                           VERSE PART 3 
----------------------------------------------------|------------------------- 
----------------------------------------------------|------------------------- 
----------6-----------------------6-----------------|-----6-6----------------- 
---xxxx---6--9-6-7----6--9--xxxx--6--9-6-7----6--9--|-----6-6----------------- 
---xxxx---4--9-6-7----6--9--xxxx--4--9-6-7----6--9--|-x-x-4-4----------------- 
---xxxx------7-4-5----4--7--xxxx-----7-4-5----4--7--|-x-x--------------------- 
                                                                               
PRE Chorus 
------------------------------------------------------------------------------ 
------------------------------------------------------------------------------ 
------------------------------------------------------------------------------ 
-7-7-7-7-7-7-7-7-7---6-6-6-6-6-6-6-6-6---------------------------------------- 
-7-7-7-7-7-7-7-7-7---6-6-6-6-6-6-6-6-6---------------------------------------- 
-5-5-5-5-5-5-5-5-5---4-4-4-4-4-4-4-4-4---------------------------------------- 
                                                                               
Chorus 
------------------------------------------------------------------------------ 
------------------------------------------------------------------------------ 
-6-6-6----------------------6-6-6--------------------------------------------- 
-6-6-6-6-7-7-7-7-9-9-9-9----6-6-6-6-7-7-7-7--9---9---------------------------- 
-4-4-4-6-7-7-7-7-9-9-9-9----4-4-4-6-7-7-7-7--9---9---------------------------- 
-------4-5-5-5-5-7-7-7-7----------4-5-5-5-5--7---7---------------------------- 
                                                                               
 
structure: 
______________ 
 
main riff x2 
verse part 1 x1 
verse part 2 x 2 
verse part 3 x1 
pre Chorus x 1 
Chorus x 2 
main riff x 1 
verse part 1 x1 
verse part 2 x 2 
verse part 3 x 1 
pre Chorus x 1 
Chorus x 2 
main riff x1 and half (leads into pre Chorus) 
pre Chorus x 1 
Chorus  till end of song 

		  

auto scroll beats size up size down change color hide chords drawings
tab show chords e-chords YouTube Clip e-chords hide all tabs e-chords go to top tab

share