Feeder

Turn

Feeder

tabs

save to print version add songbook text version e-mail correct tuner
chordsukulelecavacokeyboardtabbassdrumsharmonicaflute Guitar Pro
close

there isn't a video lesson for this song

chords

Turn

	  		Tab By: Tom2K2308 
 
INTRO: 
 
GTR 1: With delay 
 
E|-----------------------------------------------------------------------------| 
B|-----------------------------------------------------------------------------| 
G|------------------------------------------------8-8-----8-8-----8-8-----8-8--| 
D|------13-13------13-13-----13-13-----13-13------8-8-----8-8-----8-8-----8-8--| 
A|------11-11------11-11-----11-11-----11-11--6-6-6-6-6-6-6-6-6-6-6-6-6-6-6-6--| 
E|--0-0--------0-0-------0-0-------0-0-----------------------------------------| 
 
GTR 2: With delay 
 
E|-----------------------------------------------------------------------------| 
B|-----------------------------------------------------------------------------| 
G|--13--let ring----------------------------12--let ring-----------------------| 
D|-----------------------------------------------------------------------------| 
A|-----------------------------------------------------------------------------| 
E|-----------------------------------------------------------------------------| 
 
VERSE: 
 
Gtr 1: 
 
E|-----------------------------------------------------------------------------| 
B|-----------------------------------------------------------------------------| 
G|------------------------------------------------8-8-----8-8-----8-8-----8-8--| 
D|------13-13------13-13-----13-13-----13-13------8-8-----8-8-----8-8-----8-8--| 
A|------11-11------11-11-----11-11-----11-11--6-6-6-6-6-6-6-6-6-6-6-6-6-6-6-6--| 
E|--0-0--------0-0-------0-0-------0-0-----------------------------------------| 
 
GTR 2: 
 
E|-----------------------------------------------------------------------------| 
B|-----------------------------------------------------------------------------| 
G|--13--(let ring)------------------------12--(let ring)-----------------------| 
D|-----------------------------------------------------------------------------| 
A|-----------------------------------------------------------------------------| 
E|-----------------------------------------------------------------------------| 
 
Gtr 1: 
 
E|-----------------------------------------------------------------------------| 
B|-----------------------------------------------------------------------------| 
G|-----------------------------------------------------------------------------| 
D|------13-13------13-13-----13-13-----13-13------9-9-----9-9-----9-9-----9-9--| 
A|------11-11------11-11-----11-11-----11-11------9-9-----9-9-----9-9-----9-9--| 
E|--0-0--------0-0-------0-0-------0-0--------7-7-7-7-7-7-7-7-7-7-7-7-7-7-7-7--| 
 
GTR 2: 
 
E|-----------------------------------------------------------------------------| 
B|-----------------------------------------------------------------------------| 
G|--13--(let ring)------------------------15-16---11--(let ring)---------------| 
D|-----------------------------------------------------------------------------| 
A|-----------------------------------------------------------------------------| 
E|-----------------------------------------------------------------------------| 
 
LINK TO CHORUS: 
 
Gtr 1: 
 
C#m, A 
 
Gtr 2: 
 
E|-------------------| 
B|-------------------| 
G|-------------------| 
D|--14-13-14-13--etc-| 
A|-------------------| 
E|-------------------| 
 
CHORUS: 
 
Gtr 1: Strum these chords: 
 
    B  C#m  A   E 
E|--7---9---5---0---| 
B|--7---9---5---0---| 
G|--8---9---6---1---| 
D|--9--11---7---2---| 
A|--9--11---7---2---| 
E|--7---9---5---0---| 
 
Gtr 2: 
 
    B                                               C#m 
E|-11-11-11-11--11-11-11-11--11-11-11-11--9-9-9-9--12-12-12-12--12-12-12-12--| 
B|---------------------------------------------------------------------------| 
G|---------------------------------------------------------------------------| 
D|---------------------------------------------------------------------------| 
A|---------------------------------------------------------------------------| 
E|---------------------------------------------------------------------------| 
 
                              A                                       E 
E|-12-12-12-12--11-11-11-11--9-9-9-9--9-9-9-9--9-9-9-9--11-11-12-12--7-7-7-7--7-7-7-7--| 
B|-------------------------------------------------------------------------------------| 
G|-------------------------------------------------------------------------------------| 
D|-------------------------------------------------------------------------------------| 
A|-------------------------------------------------------------------------------------| 
E|-------------------------------------------------------------------------------------| 
 
Bridge: So come on, give in 
 
Ab5, A5, E5 
Ab5, A5 
 

		  

Full key step upFull key step up
Half key step upHalf key step up
Half key step downHalf key step down
Full key step downFull key step down
hide glossary

See also:

tabs Feeder - Oxygen tabs Feeder - Anaeshetic tabs Feeder - Helium (ver. 2) tabs Feeder - Godzilla (ver. 2) tabs Feeder - You're My Evergreen tabs Feeder - Sweet Sixteen
e-chords

Other versions:

tabs Feeder - Turn tabs Niccokick - turn 27 tabs Seether - Turn Around tabs Shaaman - Turn Away tabs Shaman - Turn Away tabs Shaaman - Turn Away 2
auto scroll beats size up size down change color hide chords drawings
tab show chords e-chords YouTube Clip e-chords hide all tabs e-chords go to top tab

share