Feeder

Standing On The Edge

Feeder

tabs

save to print version add songbook text version e-mail correct tuner
chordsukulelecavacokeyboardtabbassdrumsharmonicaflute Guitar Pro
close

there isn't a video lesson for this song

chords

Standing On The Edge

	  		Tab By: Tom2K2308 
Notes:  Drop D Tuning 
 
CLASSIC FEEDER - GREAT SONG, NICE START TO THE ALBUM. 
 
Intro: Footsteps "Where's this bit, na we're in the wrong bit" 
 
Distant, muffled guitar, graduly getting louder. 
 
E|--------------------------| 
B|--------------------------| 
G|--------------------------| 
D|--------------------------| 
A|--5-5--5-5-5--5-5-5--etc--| 
D|--0-0--0-0-0--0-0-0--etc--| 
 
Play these notes, and move from full bass to full treble on a wah-wah 
 
VERSE: 
 
GTR 1: 
 
E|---------------------------| 
B|---------------------------| 
G|---------------------------| 
D|---------------------------| 
A|--3-5-3-5-3-5-3-5-3-3-3-3--| 
D|--0-0-0-0-0-0-0-0-0-0-0-0--| 
 
GTR 2: 
 
E|---------------------------------------| 
B|---------------------------------------| 
G|--------------------------10-10-10-10--| 
D|--10-12-10-12-10-12-10-12-10-10-10-10--| 
A|---------------------------------------| 
D|---------------------------------------| 
 
INTERLUDE: (YEAH!!) 
 
First/Third time: 
 
    F5         F#5 
E|---------------------| 
B|---------------------| 
G|---------------------| 
D|--3-3-3-3--3--4-4-4--| 
A|--3-3-3-3--3--4-4-4--| 
D|--3-3-3-3--3--4-4-4--| 
 
Second/Fourth time: 
 
    F5         Ab5 
E|---------------------| 
B|---------------------| 
G|---------------------| 
D|--3-3-3-3--3--6-6-6--| 
A|--3-3-3-3--3--6-6-6--| 
D|--3-3-3-3--3--6-6-6--| 
 
CHORUS: 
 
    Am  G   F   Em 
E|--0---3---1---0---| 
B|--1---3---1---0---| 
G|--2---0---2---0---| 
D|--2---0---3---2---| 
A|--0---5---3---2---| 
D|------5-------2---| 
 
Am         G          F 
When your all by yourself 
Em               F 
Standing on the edge of the world 
Am      G           F 
Take a look at yourself 
       Em     F 
Don't fall back in 
 
OUTRO: 
 
  interlude 
 

		  

Full key step upFull key step up
Half key step upHalf key step up
Half key step downHalf key step down
Full key step downFull key step down
hide glossary

See also:

tabs Feeder - Oxygen tabs Feeder - Anaeshetic tabs Feeder - Helium (ver. 2) tabs Feeder - Godzilla (ver. 2) tabs Feeder - You're My Evergreen tabs Feeder - Sweet Sixteen
e-chords

Other versions:

tabs Feeder - Standing On The Edge tabs Thursday - Standing On The Edge Of Summer tabs Thursday - Standing On The Edge Of Summer (ver. 2) tabs Thursday - Standing On The Edge Of Summer (ver. 3)
auto scroll beats size up size down change color hide chords drawings
tab show chords e-chords YouTube Clip e-chords hide all tabs e-chords go to top tab

share