Feeder

Bug

Feeder

tabs

save to print version add songbook text version e-mail correct tuner
chordsukulelecavacokeyboardtabbassdrumsharmonicaflute Guitar Pro
close

there isn't a video lesson for this song

chords

Bug

	  		Standard tuning 
 
 
New song of Echo Park one of my favourites. Sounds ok to me check it out. 
 
 
Intro/verse 
E--------------------------------------------------------  
b-------------------------------------------------------- 
g--------------------------------------------------------  
d--2-4-2-4-2-4-2-4-5-5-4--------------------------------- 
a--2-4-2-4-2-4-2-4-5-5-4--------------------------------- 
e--0-2-0-2-0-2-0-2-3-3-2---------------------------------  
 
Mother can you feed me now... 
 
Break 
E--------------------------------------------------------  
b-------------------------------------------------------- 
g--------------------------------------------------------  
d--2-2-2-2-2-----------------------------  
a--2-2-2-2-2----------------------------- play a lot of times 
e--0-0-0-0-0----------------------------- 
 
Feed me now, feed me now... 
 
Chorus 
e--------------------------------------------------------  
b-------------------------------------------------------- 
g--------------------------------------------------------  
d--4-4-5-5-4-4--2---------------------------------------- 
a--4-4-5-5-4-4--2---------------------------------------- 
E--2-2-3-3-2-2--0---------------------------------------- 
 
Revolution, revolution?. 
 
 
Other part that crops up 
 
e--------------------------------------------------------  
b-------------------------------------------------------- 
g--------------------------------------------------------  
d--4-4-4-4-4-4-4-4-4-4-4-4--5-5-5------------------------ 
a--4-4-4-4-4-4-4-4-4-4-4-4--5-5-5------------------------ 
E--2-2-2-2-2-2-2-2-2-2-2-2--3-3-3------------------------ 
 
(Grant shouting something a couple of times) 
 
There it is enjoy! 
 
Adam F 
 

		  

See also:

tabs Feeder - Oxygen tabs Feeder - Anaeshetic tabs Feeder - Helium (ver. 2) tabs Feeder - Godzilla (ver. 2) tabs Feeder - You're My Evergreen tabs Feeder - Sweet Sixteen
e-chords

Other versions:

tabs Feeder - Bug tabs Dredg - Bug Eyes (acoustic) tabs Pearl Jam - Bugs
auto scroll beats size up size down change color hide chords drawings
tab show chords e-chords YouTube Clip e-chords hide all tabs e-chords go to top tab

share