save to print version add songbook text version e-mail correct tuner
chordsukulelecavacokeyboardtabbassdrumsharmonicaflute Guitar Pro
close

there isn't a video lesson for this song

chords

Harsh

Key:  Am More
Harsh Key EmEm
Harsh Key FmFm
Harsh Key F#mF#m
Harsh Key GmGm(one step down)
Harsh Key G#mG#m(half step down)
Harsh Key AmAm(original key)
Harsh Key A#mA#m(half step up)
Harsh Key BmBm(one step up)
Harsh Key CmCm
Harsh Key C#mC#m
Harsh Key DmDm
Harsh Key D#mD#m
	  		 
Verso 
   Am     G     G 
------------------------------- 
---1------3-----1-------------- 
---2------4-----2--------------4x 
---2------5-----3-------------- 
------------------------------- 
------------------------------- 

     

----------------------------   ---------------------------------- 
----------------------------   ---------------------------------- 
----------------------------2x ---9------------------------------2x(só a primeira e 
---3----------7---------5---   ---7--------5--------9---------7--  a segunda nota na 
---3----------7---------5---   ---7--------3--------7---------5--  Segunda vez q tocar 
---3----------7---------5---   ------------3--------7---------5--  essa parte) 

     

   Am     G     G 
------------------------------- 
---1------3-----1-------------- 
---2------4-----2--------------3x 
---2------5-----3-------------- 
------------------------------- 
------------------------------- 

              
-------------------------------------------------------- 
-------------------------------------------------------- 
-------------------------------------------------------- 
-------------------------------------------------------- 
--------------------------------3---------7-----6------- 
---0----3----7----6------0-----33---------7-----6------- 

     
----------------------------   ---------------------------------- 
----------------------------   ---------------------------------- 
----------------------------2x ---9------------------------------2x(só a primeira e 
---3----------7---------5---   ---7--------5--------9---------7--  a segunda nota na 
---3----------7---------5---   ---7--------3--------7---------5--  Segunda vez q tocar 
---3----------7---------5---   ------------3--------7---------5--  essa parte) 

     

------------------------------------ 
------------------------------------ 
------------------------------------2x (ou 4x se preferir) 
------------------------7-------5--- 
---7--------------------5-------3--- 
---7------10-----9------5-------3--- 

     
----------------------------   ---------------------------------- 
----------------------------   ---------------------------------- 
----------------------------2x ---9------------------------------2x(só a primeira e 
---3----------7---------5---   ---7--------5--------9---------7--  a segunda nota na 
---3----------7---------5---   ---7--------3--------7---------5--  Segunda vez q tocar 
---3----------7---------5---   ------------3--------7---------5--  essa parte) 

     

------------------------------- 
---1------3-----1-------------- 
---2------4-----2-------------- (até o fim) 
---2------5-----3-------------- 
------------------------------- 
------------------------------- 

 
		  

Full key step upFull key step up
Half key step upHalf key step up
Half key step downHalf key step down
Full key step downFull key step down
hide glossary

See also:

tabs Stevie Ray Vaughn and Double Trouble - Riviera Paradise tabs Beyoncé - Speechless tabs Blind Boy Fuller - Piccolo Rag tabs Wilson Pickett - Land Of 1000 Dances tabs Mississipi John Hurt - Nobody cares for me tabs Blind Blake - Diddie wa diddie
e-chords

Other versions:

tabs Eyes Set To Kill - Harsh
auto scroll beats size up size down change color hide chords drawings
tab show chords e-chords YouTube Clip e-chords hide all tabs e-chords go to top tab

share