Exodus

Black 13

Exodus

tabs

by  LUCICAMARGO

save to print version add songbook text version e-mail correct tuner
chordsukulelecavacokeyboardtabbassdrumsharmonicaflute Guitar Pro
close

there isn't a video lesson for this song

chords

Black 13

	  		

Main riff 
e|---------------------------------------------------------------------------| 
B|---------------------------------------------------------------------------| 
G|---------------------------------------------------------------------------| 
D|---------------------------------------------------------------------------| 
A|-----------------------------7p0-------------------------------------------| 
E|-6p0-0-0-0-0-0-0-0-0-0-5p0-0-----0-0-0-0-0-6p0-0-0-0-0-3p0-0-0-0-0-5p0-0-0-| 

                                          X4                        
e|---------------------------------------|------------------------|----------| 
B|---------------------------------------|------------------------|----------| 
G|---------------------------------------|------------------------|----------| 
D|---------------------------------------|------------------------|----------| 
A|---------------------------------------|------------------------|----------| 
E|-0-0-0-0-0-0-0-6-6-6-3-3-3-4-4-4-5-5-5-|6-6-6-3-3-3-4-4-4-5-5-5-|-6----\12-| 

Chorus 
e|---------------------------------------------------------------------------| 
B|---------------------------------------------------------------------------| 
G|---------------------------------------------------------------------------| 
D|-------------------------3---------------------------5---------------------| 
A|-----------------------------5---------------------------5-----------------| 
E|-0---0-0-0---6---3---0-----------0--0-0-0--6--3--0-----------0---0-0-0-----| 
                         
                          x3 times                      4th time                After 2nd time Chorus 
e|---------------------|----------------------------|------------------------|----------| 
B|---------------------|----------------------------|------------------------|----------| 
G|---------------------|----------------------------|------------------------|----------| 
D|-------------3-------|-------------------------5~-|------------------------|----------| 
A|-----------------5---|----------------------------|------------------------|-8------3-| 
E|-6---3---0-----------|-0---0-0-0---6---3---0------|6-6-6-3-3-3-4-4-4-5-5-5-|-6------1-| 

Pre-solo riffs 
e|---------------------------------------------------------------------------| 
B|---------------------------------------------------------------------------| 
G|---------------------------------------------------------------------------| 
D|---------------------------------------------------------------------------|   x2 times 
A|-2--------1p0-2--------1p0-2--------1p0-2-----5-----5--1p0-----1p0---------| 
E|-0----000-----0----000-----0----000-----0--0--3--0--3------000-------------| 

e|-------------------------------------------------------------------------------------| 
B|-------------------------------------------------------------------------------------| 
G|-------------------------------------------------------------------------------------| 
D|-------------------------------------------------------------------------------------|  x4 times 
A|-2-------2-2---2-1-2-------2-2---2-1-2-------2-2---2-1-2-----5-----5-----2p1-----1p0-| 
E|-0---2-1-0-0-------0---2-1-0-0-------0---2-1-0-0-------0-000-3-000-3-0-0-----000-----| 

e|---------------------------------------------------------------------------| 
B|---------------------------------------------------------------------------| 
G|---------------------------------------------------------------------------| 
D|---------------------------------------------------------------------------| 
A|-2---22222---22222---22222-------1p0-2---22222---22222---22222-------1p0---| 
E|-0---00000---00000---00000---0-0-----0---00000---00000---00000---0-0-------| 
                                                                                  x2 times 
e|---------------------------------------------------------------------------| 
B|---------------------------------------------------------------------------| 
G|---------------------------------------------------------------------------| 
D|---------------------------------------------------------------------------| 
A|-2---22222---22222---22222-------1p0-5---55555---55555------2p1------1p0---| 
E|-0---00000---00000---00000---0-0-----3---33333---33333--0-0-----000--------| 

Solo Riff 
e|-----------------------------------------------------------------------------| 
B|-----------------------------------------------------------------------------| 
G|-----------------------------------------------------------------------------| 
D|-----------------------------------------------------------------------------| 
A|-----------------------------------------------------------------------------| 
E|-6p0--0-0-0--0--0--6--3--0--5--0--0-0-0--0--6--3--0--5--0--0-0-0--0--6--3--0-| 

e|-----------------------------------------------------------------------------| 
B|-----------------------------------------------------------------------------| 
G|-----------------------------------------------------------------------------| 
D|-----------------------------------------------------------------------------| 
A|--8-8-8-5-5-5-6-6-6-7-7-7----------------------------------------------------| 
E|--6-6-6-3-3-3-4-4-4-5-5-5----------------------------------------------------| 

Outro Riff (not sure about this one) 
e|--------------------------------------------------------------------------------------| 
B|--------------------------------------------------------------------------------------| 
G|--------------------------------------------------------------------------------------| 
D|-5-5h7p5-----5-5h6p5-----5-5h7p5------------5-5h7p5-----5-5h6p5-----5-5h7p5-----------| 
A|-5-5h7p5-----5-5h6p5-----5-5h7p5------------5-5h7p5-----5-5h6p5-----5-5h7p5-----------| 
E|---------000---------000---------0-000-0-0----------000---------000---------0-000-0-0-| 

************************************ 

| /   slide up 
| \   slide down 
| h   hammer-on 
| p   pull-off 
| ~   vibrato 
| +   harmonic 
| x   Mute note 
| b   Bend 
| pb  Pre-bend 
| br  Bend release 
| pbr Pre-bend release 
| brb Bend release bend 

************************************ 
		  

See also:

tabs Motley Crue - Home Sweet Home tabs Marilyn Manson - Tainted love tabs Slipknot - Vermilion Pt.2 (versão Correta) tabs Pantera - Walk tabs Slipknot - The Blister Exists tabs Slipknot - Duality
e-chords

Other versions:

tabs Exodus - Black 13
auto scroll beats size up size down change color hide chords drawings
tab show chords e-chords YouTube Clip e-chords hide all tabs e-chords go to top tab

share