Exodus

War is My Shepherd

Exodus

tabs Easy easy

save to print version add songbook text version e-mail correct tuner
chordsukulelecavacokeyboardtabbassdrumsharmonicaflute Guitar Pro
close

there isn't a video lesson for this song

chords

War is My Shepherd

	  		Please tune to : D G C F A d 
 
|-------------------------------------------| 
|-------------------------------------------| 
|-----------2-------------------------------| 
|-----------2--------2----------------------| Guitar I (x4) 
|-7-6---5---0--------2----------------------| 
|-----0---0---0-0-3~-0----------------------| 
      .   .   . . 
Riff A 
|-----------------------------------------------------------------| 
|-----------------------------------------------------------------| 
|-----------------------------------------------------------------| 
|-----------------------------------------------------------------|Guitar I 
|-8-------7-------6-------5-------8-------7-------5h6---------5h6-| 
|---0-0-0---0-0-0---0-0-0---0-0-0---0-0-0---0-0-0-----0-0-5h6-----| 
    . . .   . . .   . . .   . . .   . . .   . . .     . . 
 
Riff B 
|---------------------------------------------------------------| 
|---------------------------------------------------------------| 
|---------------------------------------------------------------| 
|---------------------------------------------------------------|Guitar I 
|-8-------7-------6-------5-------8-------7-------5h6-6-6-5h6---| 
|---0-0-0---0-0-0---0-0-0---0-0-0---0-0-0---0-0-0-------------6-| 
    . . .   . . .   . . .   . . .   . . .   . . . 
 
Repeat Riff A 
Repeat Riff B 
 
|-----------------------------------------------------------------| 
|-----------------------------------------------------------------| 
|-----------------------------------------------------------------| 
|-----------------------------------------------------------------|Guitar I & II 
|-8-------7-------6-------5-------8-------7-------5h6---------5h6-| 
|---0-0-0---0-0-0---0-0-0---0-0-0---0-0-0---0-0-0-----0-0-5h6-----| 
    . . .   . . .   . . .   . . .   . . .   . . .     . . 
 
|--------------------------------------------------------| 
|--------------------------------------------------------| 
|--------------------------------------------------------| 
|---------------------------------10-/9-----------7-6-(6)|Guitar I and II 
|-8-------7-------6-------5-------8-/-7---10-/9---7-6-(6)| 
|---0-0-0---0-0-0---0-0-0---0-0-0-------0-8-/-7-0-5-4-(4)| 
    . . .   . . .   . . .   . . .   . . .   . . . 
 
Repeat Riff A 
Repeat Riff B 
Repeat Riff A 
 
|-----------------------------------------------------------------| 
|-----------------------------------------------------------------| 
|-----------------------------------------------------------------| 
|-----------------------------------------------------------------|Guitar I & II 
|-8-------7-------6-------5-------8-------7-------5h6-6-------8---| 
|---0-0-0---0-0-0---0-0-0---0-0-0---0-0-0---0-0-0-------0-5h6-----| 
    . . .   . . .   . . .   . . .   . . .   . . .       . 
 
Pre-Chorus 
 
|-------------------------------------------------------------| 
|-------------------------------------------------------------|Guitar I and II 
|-------------------------------------------------------------|* You can also 
|-------------------------------5-------7-------9-------------| hammer-on these 
|-8-----------5---7-------------3-------5-------7-------------| slides. 
|---0-0-0-5/6---0---0-0-0-0-0-0---0-3/5---0-5/7---0-0-0-0-0-0-| 
    . . .       .   . . . . . .                   . . . . . . 
 
|-------------------------------------------------------------| 
|-------------------------------------------------------------| 
|-------------------------------------------------------------| 
|-------------------------------5-------7-------2-------------|Guitar I and II 
|-8-----------5---7-------------3-------5-------2-------------| 
|---0-0-0-5/6---0---0-0-0-0-0-0---0-3/5---0-5/7-0-0-0-0-0-0-0-| 
    . . .           . . . . . .                   . . . . . . 
 
 
|-------------------------------------------------------------| 
|-------------------------------------------------------------| 
|-------------------------------------------------------------| 
|-------------------------------5-------7-------9-------------|Guitar I 
|-8-----------5---7-------------3-------5-------7-------------| 
|---0-0-0-5/6---0---0-0-0-0-0-0---0-3/5---0-5/7---0-0-0-0-0-0-| 
    . . .       .   . . . . . .                   . . . . . . 
 
|-------------------------------------------------------------| 
|-------------------------------------------------------------| 
|-------------------------------------------------------------| 
|-------------------------------5-------7-------9-------------| Guitar II 
|-8-----------5---7-------------3-------5-------7---7---5h7---| 
|---0-0-0-5/6---0---0-0-0-0-0-0---0-3/5---0-5/7-------0-------| 
    . . .       .   . . . . . .                       . 
 
|--------------------------------------| 
|--------------------------------------| 
|--------------------------------------| 
|-----------------9-------9---9--5--7--|Guitar I and II 
|-8-----------5---7-7-7-7-7-7-7--3--5--| 
|---0-0-0-5h6---0----------------3--5--| 
    . . .       .   . . .   . 
 
Chorus 
 
|--------------------------------------| 
|--------------------------------------| 
|-----------2--------------------------| 
|-----------2--------2-----------------|Guitar I and II (x4) 
|-7-6---5---0--------2-----------------| 
|-----0---0---0-0-3~-0-----------------| 
      .   .   . . 
 
|--------------------------------------| 
|--------------------------------------| 
|--------------------------------------| 
|--------------------------------------| 
|-------------------------3-5-7--------| 
|-0-0-1h4-0-0-2h5-0-0-5-7--------------| 
  . .     . .     . . 
 
Repeat All Since Riff A 
 
|-------------------------------------------------------------------| 
|-------------------------------------------------------------------| 
|-------------------------------------------------------------------| 
|-------------------------------------------------------------------| 
|-6-----5-----5h7-6-----5-----5h7-6-----5-----5h7-6p3p0-------------| 
|---0-0---0-0-------0-0---0-0-------0-0---0-0-----------6p3p0-3h5-0-| 
    . .   . .       . .   . .       . .   . . 
 
 
Guitar I Solo- Gary Holt (w/wah pedal) 
 
|----------------------------------------| 
|-15------15------15--15------15------15-| 
|-14h(15)----(15)r14--14h(15)----(15)r14-| 
|----------------------------------------| 
|----------------------------------------| 
|----------------------------------------| 
 
 
|------------------------------------------------10f-| 
|-10h11p10----10h11p10----10h11p10----10h11p10-------| 
|----------13----------13----------13----------13----| 
|----------------------------------------------------| 
|----------------------------------------------------| 
|----------------------------------------------------| 
 
 
|12-16p12-15p12-15p12---12-16p12-15p12-15p12---| 
|--------------------15---------------------15-| 
|----------------------------------------------| 
|----------------------------------------------| 
|----------------------------------------------| 
|----------------------------------------------| 
 
 
|-12-16p12-15p12-15p12----12-------------------------| 
|----------------------15----16p15p12---12-----------| 
|-------------------------------------14---16h(18)-12| 
|----------------------------------------------------| 
|----------------------------------------------------| 
|----------------------------------------------------| 
 
 
|-----------------------------------------------------| 
|-----------------------------------------------------| 
|-14-12-14-15-14f(16)p12----14-12-14-15-14f(16)p12----| 
|------------------------14------------------------14-| 
|-----------------------------------------------------| 
|-----------------------------------------------------| 
 
 
|-----------------------------------------| 
|-----------------------------------------| 
|-14f(16)-12--14f(16)-12-12h14p12----12---| 
|---------------------------------14----14| 
|-----------------------------------------| 
|-----------------------------------------| 
 
 
|------------------------------------------|* The db on that 
|------------------------------------------| D note stands 
|-2ph(4)-2ph-2ph(4)-2-2-t7-0h2p0---0-------| for dive-bomb. 
|--------------------------------2---2-----| If you have a 
|------------------------------------------| tremolo bridge, 
|--------------------------------------0db-| push the bar down. 
 
 
 
|-------------------------------------------------------------------| 
|-------------------------------------------------------------------| 
|-------------------------------------------------------------------| 
|-------------------------------------------------------------------| (x7) 
|-8-------8---7-------8---7-8-7-5---7---5---8---7-------7-8-7-5-----| 
|---0-0-0---0---0-0-0---0-------------0---0---0---0-0-0---------6---| 
    . . .   .   . . .   .             .   .   .   . . . 
 
|-------------------------------------------------------------------| 
|-------------------------------------------------------------------| 
|-------------------------------------------------------------------| 
|-------------------------------------------------------------------|Guitar I 
|-8-------8---7-------8---7-8-7-5---7---5---8---7---7---5---8--7----| 
|---0-0-0---0---0-0-0---0-------------0---0---0---0---0---0---0-----| 
    . . .   .   . . .   .             .   .   .   .   .   .   . 
 
|-------------------------------------------------------------------| 
|-------------------------------------------------------------------| 
|-------------------------------------------------------------------| 
|-----------------------------------6---3---7---6---6---3---7---6---|Guitar II 
|-8-------8---7-------8---7-8-7-5-----------------------------------| 
|---0-0-0---0---0-0-0---0-------------0---0---0---0---0---0---0-----| 
    . . .   .   . . .   .             .   .   .   .   .   .   . 
 
|-------------------------------------------------------------------| 
|-------------------------------------------------------------------| 
|-------------------------------------------------------------------| 
|-9---7---10---9---9---7---10---9---9---7---10--9---9---7---10--9---|Guitar I&II 
|-7---5---8----7---7---5---8----7---7---5---8---7---7---5---8---7---| 
|---0---0----0---0---0---0----0-----7---5---8---7---7---5---8---7---| 
    .   .    .   .   .   .    . 
 
|-----------------------------------------| 
|-----------------------------------------| 
|-----------------------------------------| 
|-10-/9-----------7--/6-(6)---------------|Guitar I and II 
|-8-/-7---10-/9---7-/-6-(6)---------------| 
|-------0-8-/-7-0-5/--4-(4)---------------| 
        .       . 
 
Repeat Riff A 
Repeat Riff B 
 
Guitar II Solo- Rick Hunolt 
 
|-------------------------11p8-11fb(13)-(13)r11-----| 
|-10b-10-11-10-8-10p8-10b---------------------------| 
|---------------------------------------------------| 
|---------------------------------------------------| 
|---------------------------------------------------| 
|---------------------------------------------------| 
 
|-12-14-15-14hb(15)-14--19p15------14-15-17-17hb(18)-15-14-15-19----| 
|-----------------------------17---------------------------------17-| 
|--------------------------------16---------------------------------| 
|-------------------------------------------------------------------| 
|-------------------------------------------------------------------| 
|-------------------------------------------------------------------| 
 
|-12-------15fb(17)-(17)--15fb(17)-15fb(17)-12------| 
|----15p12------------------------------------------| 
|---------------------------------------------------| 
|---------------------------------------------------| 
|---------------------------------------------------| 
|---------------------------------------------------| 
 
|----15p14p12----17p15p12----15p14p12---------------------------------------| 
|-12----------12----------12----------17p15p12-12h14p12----12---------------| 
|-------------------------------------------------------15----15-14-12h14p12| 
|---------------------------------------------------------------------------| 
|---------------------------------------------------------------------------| 
|---------------------------------------------------------------------------| 
 
|---------------------------------------------------------------------------| 
|-15-14-12h14p12----12-12h14p12---------------------------------------------| 
|----------------15-------------15-15-14-12-12h14p12----12----15-------(14)-| 
|----------------------------------------------------14----14-14fb(16)-(16)-| 
|---------------------------------------------------------------------------| 
|---------------------------------------------------------------------------| 
 
|--------------------------------| 
|--------------------------------| 
|---------------2----------------| 
|---------------2----------2-----|Guitar I and II (x8) 
|-7-6-----5-----0----------2-----| 
|-0-0-0-0-0-0-0---0-0-0-3~-0-----| 
      . .   . .   . . . 
 
 
|--------------------------------------| 
|--------------------------------------| 
|--------------------------------------| 
|-----------------------------10-7--9--|Guitar I and II 
|-----------------------------8--5--7--| 
|-0-0-0h3-0-0-1h4-0-0-2h5-0-0-8--5--7--| 
  . .     . .     . .     . . 
 
 
By/ Danilo Zacarias 
e-mail: [email protected] 

		  

See also:

tabs Motley Crue - Home Sweet Home tabs Marilyn Manson - Tainted love tabs Slipknot - Vermilion Pt.2 (versão Correta) tabs Pantera - Walk tabs Slipknot - The Blister Exists tabs Slipknot - Duality
e-chords

Other versions:

tabs Exodus - War is My Shepherd
auto scroll beats size up size down change color hide chords drawings
tab show chords e-chords YouTube Clip e-chords hide all tabs e-chords go to top tab

share