Everything Everything

Big Game

Everything Everything

tabs

by  ALYSLIMA

save to print version add songbook text version e-mail correct tuner
chordsukulelecavacokeyboardtabbassdrumsharmonicaflute Guitar Pro
close

there isn't a video lesson for this song

chords

Big Game

	  		

Heavy guitar that comes in first: 
e|----------------|-----------------|---------------------|--------------------| 
B|----------------|-----------------|---------------------|--------------------| 
G|----------------|-----------------|---------------------|--------------------| 
D|----------------|-----------------|---------------------|--------------------| 
A|----------------|-----------------|---------------------|---------------5----| 
D|-0--------0--2--|-7---5-----5-----|-12-12-10-----10-9---|-6---9------5-----4-|    x3 

e|----------------|-----------------|---------------------|--------------------| 
B|----------------|-----------------|---------------------|--------------------| 
G|----------------|-----------------|---------------------|--------------------| 
D|----------------|-----------------|---------------------|--------------------| 
A|----------------|-----------------|---------------------|---------------5----| 
D|-0-----0--0--2--|-7---5-----5-----|-12-12-10-----10-9---|-6---9------5-----4-|  

Then this part comes in: 
e|------------------------------------------|---------------------------------| 
B|----------------------------12----10------|---------------------------------| 
G|----------11b12b11----------12----11------|---------------------------------| 
D|-12----12----------12----12----12---------|---------------------------------| 
A|------------------------------------------|-12--12--12--12--12--12--12--12--| 
D|------------------------------------------|---------------------------------| 

e|------14----12b-------12-------------|-14----12b-------12--------------14-------------| 
B|----------------------------15-------|-----------------------15b-------------15b------| 
G|---14----14--------14----14-------14-|----14--------13----13--------14----14------14--| 
D|-------------------------------------|------------------------------------------------| 
A|-------------------------------------|------------------------------------------------| 
D|-------------------------------------|------------------------------------------------|    x2 


e|----------------------------|---------------------------------| 
B|----------------------------|---------------------------------| 
G|------11b12-(slow release)--|---------------------------------| 
D|---12-----------------------|---------------------------------| 
A|----------------------------|-12--12--12--12--12--12--12--12--| 
D|----------------------------|---------------------------------| 

e|------14----12b-------12-------------|-14----12b-------12--------------14-------------| 
B|----------------------------15-------|-----------------------15b-------------15b------| 
G|---14----14--------14----14-------14-|----14--------13----13--------14----14------14--| 
D|-------------------------------------|------------------------------------------------| 
A|-------------------------------------|------------------------------------------------| 
D|-------------------------------------|------------------------------------------------| 



************************************ 

| b  Bend 
  

************************************ 
		  

See also:

tabs Toto - Rosanna tabs Paul McCartney - Somedays tabs Destiny's Child - Cater 2 U tabs Simply Red - For yours babies tabs John Lennon - Imagine (ver. 2) tabs Genesis - We Cant Dance
e-chords

Other versions:

tabs Everything Everything - Big Game
auto scroll beats size up size down change color hide chords drawings
tab show chords e-chords YouTube Clip e-chords hide all tabs e-chords go to top tab

share