Evanescence

home > Evanescence

So Close Tab

Evanescence

Difficulty: ExpertExpert

by europeu

tuner correct add songbook print version text version save to e-mail
chordsukulelecavacokeyboardtabbassdrumsharmonicsflute Guitar Pro
chords

So Close

  		P.M.- Palm Mute 
/ \ - Slide 
 :  - Let Ring 
 
INTRO/VERSE 
 
|-------------------------------------------------------------------------| 
|---------------------------------------------------0--------------0------| 
|-------------0--------------0------0-----------0-------------0-----------| 
|-------9-------9---------12-----12-----12----9---9---9----12---12---12---| 
|-----7---(7)-----7-(0)-9------9------9----10------------9----------------| 
|---0---------------------------------------------------------------------| 
 
VERSE (0:49) 
 
|------------------------------------------| 
|------------------------------------------| 
|-------------0---------------7---5--------| 
|-------9-------9------\7---7---7\5--------| 
|-----7---(7)-----7-\5----5----------------| 
|---0--------------------------------------| 
 
 (0:52) 
 
|---0--0-0--0--0--0-0--0--0-0----------------------| 
|---1--3-3--0--1--3-3--0--0-0------0------3-3-0----| 
|---0--0-0--0--0--0-0--0--0-0--------0----0-0-0----| 
|---2--2-2--2--2--2-2--2--2-2----2-----2-----------| 
|---3--3-3--3--3--3-3--3-------3-------------------| 
|--------------------------------------------------| 
 
VERSE 2 (1:13) 
 
|---------0--------------0----------------------| 
|-----------0---0-----3----3---1-1--3--0--1?-3--| 
|-----0-------0-----0--------0------------------| 
|-------2---------------------------------------| 
|---3-------------------------------------------| 
|-----------------------------------------------| 
 
Chorus (1:39) 
 
|-------------------------------------------------------| 
|-------------------------------------------------------| 
|---9-9-9-9-9-9--7--7-7--7-7--5-5-5-5-5-5-5/7-7/9-9-----| 
|---9-9-9-9-9-9--7--7-7--7-7--5-5-5-5-5-5-x-x-x-x-x-----| 
|---7-7-7-7-7-7--5--5-5--5-5--3-3-3-3-3-3-3/5-5/7-7-----| 
|---7-7-7-7-7-7--5--5-5--5-5--3-3-3-3-3-3---------------| 
 
BRIDGE (2:04) 
 
 
|--------------------------------------------------------| 
|-----------------1-0------------------------------------| 
|----------------------0--5--5--5-5--5--5-5-5/7-7/9-9----| 
|---2--2-2-2--2-2---------5--3--5-5--5--5-5-x-x-x-x-x----| 
|---2--2-2-2--2-2---------3--3--3-3--3--3-3-3/5-5/7-7----| 
|---0--0-0-0--0-0----------------------------------------| 
 
|-----------------15-14----------------------------------------| 
|------------------------12-12---------------------------------| 
|-------------------------------5--5--5-5--5--5-5-5/7-7/9-9----| 
|---2--2-2-2--2-2---------------5--3--5-5--5--5-5-x-x-x-x-x----| 
|---2--2-2-2--2-2---------------3--3--3-3--3--3-3-3/5-5/7-7----| 
|---0--0-0-0--0-0----------------------------------------------| 
 
|----------------14------15--------------------------------| 
|----------------15--12------------------------------------| 
|---------------------------5--5--5-5--5--5-5-5/7-7/9-9----| 
|---2--2-2-2--2-2-----------5--3--5-5--5--5-5-x-x-x-x-x----| 
|---2--2-2-2--2-2-----------3--3--3-3--3--3-3-3/5-5/7-7----| 
|---0--0-0-0--0-0-----------------------------------------| 
 
|-------------------------15--15---------------------------------| 
|-----------------15--12-----------------------------------------| 
|---------------------------------5--5--5-5--5--5-5-5/7-7/9-9----| 
|---2--2-2-2--2-2-----------------5--3--5-5--5--5-5-x-x-x-x-x----| 
|---2--2-2-2--2-2-----------------3--3--3-3--3--3-3-3/5-5/7-7----| 
|---0--0-0-0--0-0------------------------------------------------| 
 
OUTRO (3:16) 
 
                              _________P.M.________ 
|-------------------------------------------------------| 
|-------------------------------------------------------| 
|---9--9-9--9-9--7--7-7--7-7--5-5-5-4-4-5-5-5-5-5-5--7--| 
|---9--9-9--9-9--7--7-7--7-7--5-5-5-4-4-5-5-5-5-5-5--7--| 
|---7--7-7--7-7--5--5-5--5-5--3-3-3-2-2-3-3-3-3-3-3--5--| 
|---7--7-7--7-7--5--5-5--5-5--3-3-3-2-2-3-3-3-3-3-3--5--| 
 
 
|------------------------------------------------------------| 
|------------------------------------------------------------| 
|---9--9-9--9-9--7--7-7--7-7--5-5-5-9/12-12-12-12-12-12-12---| 
|---9--9-9--9-9--7--7-7--7-7--5-5-5-x-----x--x?-x--x--x?-x---| 
|---7--7-7--7-7--5--5-5--5-5--3-3-3-7/10-10-10-10-10-10-10---| 
|---7--7-7--7-7--5--5-5--5-5--3-3-3--------------------------| 
 
|---------------------------------------| 
|---------------------------------------| 
|---0--0-0--0-0--12-12-12-12-12-12------| 
|---2--2-2--2-2--12-12-12-12-12-12------| 
|---2--2-2--2-2--10-10-10-10-10-10------| 
|---0--0-0--0-0-------------------------| x 8 
 
 (3:48) 
 
|--------------------------------0:---------0---| 
|--------------------------------0:---3-0-------| 
|---0--0-0-0--12-12-12-12-12-12?-0:-------0-----| 
|---2--2-2-2--12-12-12-12-12-12?-2:-------------| 
|---2--2-2-2--10-10-10-10-10-10?-2:-------------| 
|---0--0-0-0---------------------0:-------------| 
 
 
 

	  

Search Paypal
auto scroll beats size up size down change color hide chords drawings
tab show chords e-chords YouTube Clip e-chords hide all tabs e-chords go to top tab