Evanescence

home > Evanescence

Lose control Tab

Evanescence

Difficulty: nolevelnolevel

by europeu

tuner correct add songbook print version text version save to e-mail
chordsukulelecavacokeyboardtabbassdrumsharmonicsflute Guitar Pro
chords

Lose control

Year: 2006 - Album: Open Door

  		"Just once in my life..." 
eb|-------------------------------------------------------| 
Bb|-------------------------------------------------------| 
Gb|-------------------------------------------------------| 
Db|--0/2---00xx0--2/5---22xx2--0/2---00xx0--2/5---22xx2---| 
Ab|--0/2---00xx0--2/5---22xx2--0/2---00xx0--2/5---22xx2---| 
Db|--0/2---00xx0--2/5---22xx2--0/2---00xx0--2/5---22xx2---| 
 
eb|---------------------------------------------------| 
Bb|---------------------------------------------------| 
Gb|---------------------------------------------------| 
Db|-3-3--33-3--2-3-3--33-3--3-2-2--22-2--0-2-2--22-2--| 
Ab|-3-3--33-3--2-3-3--33-3--3-2-2--22-2--0-2-2--22-2--| 
Db|-3-3--33-3--2-3-3--33-3--3-2-2--22-2--0-2-2--22-2--| 
 
eb|-----------------------------------------------------| 
Bb|-----------------------------------------------------| 
Gb|-----------------------------------------------------| 
Db|-2-3-3--33-3--2-3-3--33-3--3-2-2--22-2--0-2-2--22-2--| 
Ab|-2-3-3--33-3--2-3-3--33-3--3-2-2--22-2--0-2-2--22-2--| 
Db|-2-3-3--33-3--2-3-3--33-3--3-2-2--22-2--0-2-2--22-2--| 
 
 
"Just once in my life..." 
eb|-------------------------------------------------------| 
Bb|-------------------------------------------------------| 
Gb|-------------------------------------------------------| 
Db|--0/2---00xx0--2/5---22xx2--0/2---00xx0--2/5---22xx2---| 
Ab|--0/2---00xx0--2/5---22xx2--0/2---00xx0--2/5---22xx2---| 
Db|--0/2---00xx0--2/5---22xx2--0/2---00xx0--2/5---22xx2---| 
 
"I fear..." 
eb|---------------------------------| 
Bb|---------------------------------| 
Gb|---------------------------------| 
Db|--7~--3---7~--3---7~--3---7~--3--| 
Ab|--7~--3---7~--3---7~--3---7~--3--| 
Db|--7~--3---7~--3---7~--3---7~--3--| 
 
eb|-----------------------------------------------| 
Bb|-----------------------------------------------| 
Gb|-----------------------------------------------| 
Db|--7773333333777333333377733333337773333333-----| 
Ab|--7773333333777333333377733333337773333333-----| 
Db|--7773333333777333333377733333337773333333-----| 
 
(do konce) 
eb|---------| 
Bb|---------| 
Gb|---------| 
Db|--3~--2~-| 
Ab|--3~--2~-| 
Db|--3~--2~-| 
 

	  

Search Paypal
auto scroll beats size up size down change color hide chords drawings
tab show chords e-chords YouTube Clip e-chords hide all tabs e-chords go to top tab