Evanescence

home > Evanescence

Going Under Tab

Evanescence

Difficulty: BeginnerBeginner

tuner correct add songbook print version text version save to e-mail
chordsukulelecavacokeyboardtabbassdrummharmonicsflute Guitar Pro
chords

Going Under

Year: 2003 - Album: Anywhere But Home

(Amy Lee/ Ben Moody/ David Hodges)

  		
Tuning: B E A D F# b  



 Verse 1 

 B |-----------------------------------------------------------| 
 E |-----------------------------------------------------------| 
 A |-----------------------------------------------------------| 
 D |-----------------------------------------------------------| 
 F#|--2-2---2-2-2---2-2---2-2-2---2-2---2-2-2---2-2---2-2-2----| 
 b |--0-0-x-0-0-0---0-0-x-0-0-0---0-0-x-0-0-0---0-0-x-0-0-0----| 



 Verse 2 

 B |-----------------------------------------------------------| 
 E |-----------------------------------------------------------| 
 A |-------------4-------------------------4-------------------| 
 D |-------------2---5---------------------2---5---------------| 
 F#|---2-2---2-------3-----------2-2---2-------3---3-----------| 
 b |---0-0-x-0-x---x---x-3-------0-0-x-0-x---x---x-------------| 



 B |-----------------------------------------------------------| 
 E |-----------------------------------------------------------| 
 A |-------------4-------------------------4-------------------| 
 D |-------------2---5---------------------2---5---------------| 
 F#|---2-2---2-------3-----------2-2---2-------3---3-----------| 
 b |---0-0-x-0-x---x---x-3-------0-0-x-0-x---x---x-------------| 



 Chorus 

 B |-----------------------------------------------------------| 
 E |-----------------------------------------------------------| 
 A |-----------------------------------------------------------| 
 D |----------5-5-----------7-7------------5-5-----------------| 
 F#|--2-2-2---3-3---5-5-5---5-5----2-2-2---3-3---5-5-5---5-5---| 
 b |--0-0-0-x----XX-3-3-3-X-----XX-0-0-0-x----XX-3-3-3-X-2-2-XX| 



 B |-----------------------------------------------------------| 
 E |-----------------------------------------------------------| 
 A |-----------------------------------------------------------| 
 D |----------5-5-----------7-7------------5-5-----------------| 
 F#|-2-2-2---3-3---5-5-5---5-5----2-2-2---3-3---5-5-5---5-5----| 
 b |-0-0-0-x----XX-3-3-3-X-----XX-0-0-0-x----XX-3-3-3-X-2-2-XX-| 



 B |-----------------------------------------------------------| 
 E |-----------------------------------------------------------| 
 A |-----------------------------------------------------------| 
 D |-----------------------------------------------------------| 
 F#|--2-2---2-2-2----------------------------------------------| 
 b |--0-0-X-0-0-0----------------------------------------------| 




 Interlúdio


 B |-----------------------------------------------------------| 
 E |-----------------------------------------------------------| 
 A |-----------------------------------------------------------| 
 D |--5-5-5-5-5-5-5-5-4-4-4-4-4-4-4----------------------------| 
 F#|--3-3-3-3-3-3-3-3-2-2-2-2-2-2-2-----2-2-2-2-2-2-2-2--------| 
 b |--------------------------------xx--0-0-0-0-0-0-0-0--------| 



 B |-----------------------------------------------------------| 
 E |-----------------------------------------------------------| 
 A |-----------------------------------------------------------| 
 D |------------------5-5-5-5-5-5-5-5-4-4-4-4-4----------------| 
 F#|--2-2-2-2-2-2-2-2-3-3-3-3-3-3-3-3-2-2-2-2-2----------------|
 b |--0-0-0-0-0-0-0-0------------------------------------------| 



 Solo 


 B |-----------------------------------------------------------| 
 E |-----------------------------------------------------------| 
 A |--------------12-12------14p12-14p12-----------------------| 
 D |--------12h14-------14---------------14p12----12-14--------| 
 F#|--12h14------------------------------------14--------------| 
 b |-----------------------------------------------------------| 




 B |-----------------------------------------------------------| 
 E |-----15b17-b17-b17-b17-b17-r15----13h15p13----12h13p12-----| 
 A |-----------------------------------------------------------| 
 D |--14-------------------------------------------------------| 
 F#|-----------------------------------------------------------| 
 b |-----------------------------------------------------------| 




 B |-----------------------------------------------------------| 
 E |-----12----------------------------------------------------| 
 A |--14----14p12----12----12-14---12--------------------------| 
 D |--------------14----14------------14------(vl)5----(vl)2---| 
 F#|------------------------------------------(vl)3----(vl)0---| 
 b |-----------------------------------------------------------|
	  

Search Paypal
auto scroll beats size up size down change color hide chords drawings
tab show chords e-chords YouTube Clip e-chords hide all tabs e-chords go to top tab