Evanescence

home > Evanescence

Going Under Bass Tab

Evanescence

Difficulty: EasyEasy

tuner correct add songbook print version text version save to e-mail
chordsukulelecavacokeyboardtabbassdrummharmonicsflute Guitar Pro
chords

Going Under

Year: 2003 - Album: Anywhere But Home

(Amy Lee/ Ben Moody/ David Hodges)

  		

Standard Tuning
E A D G

Verse
G| ---------------
D|----------------
A|-2-2---2-2-2----
E|----------------

Chorus
G|---------------------2-
D|---------5---0-0-0-----
A| 2-2-2-----------------
E|-----------------------

So go on and scream…

G|-------------------------------------------------------------------------
D|-------------------------------------------------------------------------
A| ------------------------------------3-3-3-3-3-3-3-3-3-3-3-3-3-3-3-3-----
E|-4-4-4-4-4-4-4-4---3-3-3-3-3-3-3-3---------------------------------------

End
G| ---------------
D|----------------
A|-2-2---2-2-2----
E|----------------
THIS TAB IS CORRECT - IT IS LIKE A 2ND GUITAR TAB BECAUSE  HAS NO BASS -
PLEASE RATE IT - 
BSBP

	  

Search Paypal
auto scroll beats size up size down change color hide chords drawings
tab show chords e-chords YouTube Clip e-chords hide all tabs e-chords go to top tab