Emiliana Torrini

home > Emiliana Torrini

Echo Horse Tab

Emiliana Torrini

Difficulty: nolevelnolevel

by ang%2Dletra

tuner correct add songbook print version text version save to e-mail
chordsukulelecavacokeyboardtabbassdrumsharmonicsflute Guitar Pro
chords

Echo Horse

  		

Tuning:Standard 
   (Intro)                                                        (Main)      
e|--------------------|------------------------------------------------------------| 
B|-----3--3---3---3---|----3--3---3---3-------3--3---3---3-------3--3---3---3------| 
G|-----5--5---5---5---|----5--5---5---5-------5--5---5---5-------5--5---5---5------| 
D|-----4--4---4---4---|----4--4---4---4-------4--4---4---4-------4--4---4---4------| 
A|-----2--2---2---2---|----2--2---2---2-------2--2---2---2-------2--2---2---2------| 
E|--------------------|------------------------------------------------------------| 
                                                                      i head the arrows singing 
e|---------------------------------------------------------------------------| 
B|-----3--3---3---3-----------------3--3---3---3-----------3--3---3---3------| 
G|-----5--5---5---5-----------------5--5---5---5-----------5--5---5---5------| 
D|-----4--4---4---4-----------------4--4---4---4-----------4--4---4---4------| 
A|-----2--2---2---2-----------------2--2---2---2-----------2--2---2---2------| 
E|---------------------------------------------------------------------------| 
                 i felt the whips lash          i bow to low          to a circus clown 

e|--------------------------------------------------------------------------------------------| 
B|--------7---------7---------7---------7---------7---------7---------7---------7-------------| 
G|-------8--8------8--8------8--8------8--8------8--8------8--8------8--8------8--8-----------| 
D|------9----9----9----9----9----9----9----9----9----9----9----9----9----9----9----9----------| 
A|-----9------9--9------9--9------9--9------9--9------9--9------9--9------9--9------9---------| 
E|----7---------7---------7---------7---------7---------7---------7---------7-----------------| 
               worked your land      sow your seeds               and gone hungry 


e|--------------------------------------------------------| 
B|-----3--3---3---3-------3--3---3---3-------3--3---3---3-| 
G|-----5--5---5---5-------5--5---5---5-------5--5---5---5-| 
D|-----4--4---4---4-------4--4---4---4-------4--4---4---4-| 
A|-----2--2---2---2-------2--2---2---2-------2--2---2---2-| 
E|--------------------------------------------------------| 
                                                        i've taken bullets 
e|----------------------------------------------------------------------------------------------| 
B|-----3--3---3---3---------------3--3---3---3----------------------3--3---3---3----------------| 
G|-----5--5---5---5---------------5--5---5---5----------------------5--5---5---5----------------| 
D|-----4--4---4---4---------------4--4---4---4----------------------4--4---4---4----------------| 
A|-----2--2---2---2---------------2--2---2---2----------------------2--2---2---2----------------| 
E|----------------------------------------------------------------------------------------------| 
                  i've taken swords            i had a greate tumble            and a greater fall 
e|--------------------------------------------| 
B|--------7---------7---------7---------7-----| 
G|-------8--8------8--8------8--8------8--8---| 
D|------9----9----9----9----9----9----9----9--| 
A|-----9------9--9------9--9------9--9------9-| 
E|----7---------7---------7---------7---------| 
          mm mm mm      through   your wars    

i have not the finished the part where she is humming and ?time it flickers in flame? but you can play  
after her voice.  hope you liked it and I will probably make an update or version 2 soon. bye :D      


************************************ 

| /   slide up 
| \   slide down 
| h   hammer-on 
| p   pull-off 
| ~   vibrato 
| +   harmonic 
| x   Mute note 
| b   Bend 
| pb  Pre-bend 
| br  Bend release 
| pbr Pre-bend release 
| brb Bend release bend 

************************************ 
	  

Search Paypal
auto scroll beats size up size down change color hide chords drawings
tab show chords e-chords YouTube Clip e-chords hide all tabs e-chords go to top tab