Ed Sheeran

home > Ed Sheeran

Autumn Leaves Tab

Ed Sheeran

Difficulty: EasyEasy

by andrsouza

tuner correct add songbook print version text version save to e-mail
chordsukulelecavacokeyboardtabbassdrumsharmonicsflute Guitar Pro
chords

Autumn Leaves

  		

s:slide 
p:pull off 

e|---------------------------------------------------------------------------| 
B|-----3-------3------0------1s3---1p0----3-----3s5s3--1p0-----0------1---0--| 
G|----0-0-----2-0----0-0-----0s0---0-----0-0----0s0s0--0------0-0-----0---0--| 
D|---------------------------------------------------------------------------| 
A|-------------------------3-----------------------------------------3---3---| 
E|--0-------2------3--------------------0------2-------------3---------------|Introx1 

e|--------------------------------------------| 
B|-----3------3-------0------1--0-------------| 
G|----0-0----2-0-----0-0-----0--0-------------| 
D|--------------------------------------------| 
A|--------------------------3--3--------------| 
E|--0-------2------3--------------------------|x4 verse 1 

e|---------------------------------------| 
B|----1----1-----------1s3--3let ring----| 
G|----0----0-------0---0----0let ring----| 
D|---------------------------------------| 
A|--3------------3-----3-----------------| 
E|---------------------------------------|Chorus intro 

e|--------------------------------------| 
B|------0-------------------------------| 
G|----0-0-0----0-2-0-----0-----0-2-0----| 
D|---------------0-----0-0-0-----0------| 
A|--------------------------------------| 
E|--3--------2-------0-------2----------|Chorusx4 

e|--------------------------------------------| 
B|-----3------3-------0------1--0-------------| 
G|----0-0----2-0-----0-0-----0--0-------------| 
D|--------------------------------------------| 
A|--------------------------3--3--------------| 
E|--0-------2------3--------------------------|x4 verse 2 

e|---------------------------------------| 
B|----1----1-----------1s3--3let ring----| 
G|----0----0-------0---0----0let ring----| 
D|---------------------------------------| 
A|--3------------3-----3-----------------| 
E|---------------------------------------|Chorus intro 

e|--------------------------------------| 
B|------0-------------------------------| 
G|----0-0-0----0-2-0-----0-----0-2-0----| 
D|---------------0-----0-0-0-----0------| 
A|--------------------------------------| 
E|--3--------2-------0-------2----------|Chorusx4 
	  

Search Paypal
auto scroll beats size up size down change color hide chords drawings
tab show chords e-chords YouTube Clip e-chords hide all tabs e-chords go to top tab