Dragon Ball

Tapion

Dragon Ball

tabs Beginner beginner

by  HEBEALMEIDA

save to print version add songbook text version e-mail correct tuner
chordsukulelecavacokeyboardtabbassdrumsharmonicaflute Guitar Pro
close

there isn't a video lesson for this song

chords

Tapion

	  		1------------------------------------------------------------------ 
2------------------------------------------------------------------ 
3------------------------------------------------------------------ 
4---------3----10---8---6---8---3---3---5---6---6---6---8---6---5-- 
5--3---3----------------------------------------------------------- 
6------------------------------------------------------------------ 



1------------------------------------------------------------------ 
2------------------------------------------------------------------ 
3------------------------------------------------------------------ 
4---------3----10---8---6---8---3---3---5---6---6---5---3---1---3-- 
5--3---3----------------------------------------------------------- 
6------------------------------------------------------------------ 
		  

auto scroll beats size up size down change color hide chords drawings
tab show chords e-chords YouTube Clip e-chords hide all tabs e-chords go to top tab

share