Dragon Ball

home > Dragon Ball

Dragon Ball Gt Tab

Dragon Ball

Difficulty: BeginnerBeginner

by leuzemico77

tuner correct add songbook print version text version save to e-mail
chordsukulelecavacokeyboardtabbassdrumsharmonicsflute Guitar Pro
chords

Dragon Ball Gt

  		MI CORAZÓN ENCANTADO 

INTRO 

G|---------------------------------|-----0-------0-------0-------0---| 
D|---------------------------------|---------3-------2-------0-------| 
A|---------------------------------|---------------------------------| 
E|---------------------------------|---------------------------------| 

Chorus 

G|---------------------------------|---------------------------------| 
D|---------------------------------|---------------------------------| 
A|-3---3---3---3---3---3---3---3---|-2---2---2---2---2---2---2---2---| 
E|---------------------------------|---------------------------------| 

G|---------------------------------|---------------------------------| 
D|---------------------------------|---------------------------------| 
A|-0---0---0---0---0---0---0---0---|---------------------------------| 
E|---------------------------------|-0---0---0---0---0---0---0---0---| 

G|---------------------------------|---------------------------------| 
D|---------------------------------|---------------------------------| 
A|---------------------------------|-----------------0---0---0---0---| 
E|-1---1---1---1---1---1---1---1---|-0---0---0---0-------------------| 

G|---------------------------------|-0---0---0-----------------------| 
D|---------------------------------|---------------------------------| 
A|-1---1---1---1---1---1---1---1---|---------------------------------| 
E|---------------------------------|---------------------------------| 

G|---------------------------------|---------------------------------| 
D|---------------------------------|---------------------------------| 
A|---------------------------------|-1---1---1---1---1---1---1---1---| 
E|-4---4---4---4---4---4---4---4---|---------------------------------| 

G|---------5-------4-------2-------|-0-----------0-------0-------0---| 
D|---------------------------------|---------3-------2-------0-------| 
A|---------------------------------|---------------------------------| 
E|---------------------------------|---------------------------------| 

VERSE 

G|---------------------------------|---------------------------------| 
D|---------------------------------|---------------------------------| 
A|-----0---------------------------|-1---1---1---1---1---1---1---1---| 
E|-3-------1---1---1---1---1---1---|---------------------------------| 

G|---------------------------------|---------------------------------| 
D|---------------------------------|---------------------------------| 
A|---------------------------------|-3---3---3---3---3---3---3---3---| 
E|-3---3---3---3---3---3---3---3---|---------------------------------| 

G|---------------------------------|---------------------------------| 
D|---------------------------------|---------------------------------| 
A|---------------------------------|---------------------------------| 
E|-1---1---1---1---1---1---1---1---|-3---3---3---3---3---3---3---3---| 

G|---------------------------------|---------------------------------| 
D|---------------------------------|-1---1---1---1---1---1---1---1---| 
A|-3---3---3---3---3---3---3---3---|---------------------------------| 
E|---------------------------------|---------------------------------| 

G|---------------------------------|---------------------------------| 
D|---------------------------------|---------------------------------| 
A|---------------------------------|---------------------------------| 
E|-4---4---4---4---4---4---4---4---|-4---4---4---4---4---4---4---4---| 

G|---------------------------------|---------------------------------| 
D|---------------------------------|---------------------------------| 
A|---------------------------------|-3---3---3---3---3---3---3---3---| 
E|-3---3---3---3---3---3---3---3---|---------------------------------| 

G|---------------------------------|---------------------------------| 
D|---------------------------------|---------------------------------| 
A|---------------------------------|---------------------------------| 
E|-1---1---1---1---1---1---1---1---|-3---3---3---3---3---3---3---3---| 

G|---------------------------------|---------------------------------| 
D|---------------------------------|---------------------------------| 
A|-3---3---3---3---3---3---3---3---|-1---1---1---1---1---1---1---1---| 
E|---------------------------------|---------------------------------| 

G|---------------------------------|---------------------------------| 
D|---------------------------------|---------------------------------| 
A|---------------------------------|---------------------------------| 
E|-4---4-------4-4-4---4-------4-4-|-4---4-------4-4-4---4-------4-4-| 

G|---------------------------------|---------------------------------| 
D|---------------------------------|---------------------------------| 
A|---------------------------------|---------------------------------| 
E|-3---3-------3-3-3---3-------3-3-|-3---3-------3-3-3---3-------3-3-| 

G|---------------------------------|---------------------------------| 
D|---------------------------------|---------------------------------| 
A|-3---3---3---3---3---3---3---3---|---------------------------------| 
E|---------------------------------|-1---1---1---1---1---1---1---1---| 

G|---------------------------------|-----0-------0-------0-------0---| 
D|---------------------------------|---------3-------2-------0-------| 
A|-1---1---1---1---1---1---1---1---|---------------------------------| 
E|---------------------------------|---------------------------------| 

Chorus 

G|---------------------------------|---------------------------------| 
D|---------------------------------|---------------------------------| 
A|-3---3---3---3---3---3---3---3---|-2---2---2---2---2---2---2---2---| 
E|---------------------------------|---------------------------------| 

G|---------------------------------|---------------------------------| 
D|---------------------------------|---------------------------------| 
A|-0---0---0---0---0---0---0---0---|---------------------------------| 
E|---------------------------------|-0---0---0---0---0---0---0---0---| 

G|---------------------------------|---------------------------------| 
D|---------------------------------|---------------------------------| 
A|---------------------------------|-----------------0---0---0---0-0-| 
E|-1---1---1---1---1---1---1---1---|-0---0---0---0-0-----------------| 

G|---------------------------------|---------------------------------| 
D|-0---0---0---0---0---0---0---0---|-2---2-----------------------0---| 
A|---------------------------------|---------------------0---2-------| 
E|---------------------------------|-----------------3---------------| 

G|---------------------------------|---------------------------------| 
D|---------------------------------|---------------------------------| 
A|-3---3---3---3---3---3---3---3---|-2---2---2---2---2---2---2---2---| 
E|---------------------------------|---------------------------------| 

G|---------------------------------|---------------------------------| 
D|---------------------------------|---------------------------------| 
A|-0---0---0---0---0---0---0---0---|---------------------------------| 
E|---------------------------------|-0---0---0---0---0---0---0---0---| 

G|---------------------------------|---------------------------------| 
D|---------------------------------|---------------------------------| 
A|---------------------------------|-----------------0---0---0---0-0-| 
E|-1---1---1---1---1---1---1---1---|-0---0---0---0-0-----------------| 

G|---------------------------------|---------------------------------| 
D|---------------------------------|---------------------------------| 
A|-1---1---1---1---1---1---1---1---|---------------------------------| 
E|---------------------------------|-3-------------------------------| 

G|---------------------------------|---------------------------------| 
D|---------------------------------|---------------------------------| 
A|---------------------------------|-1---1---1---1-------------------| 
E|-4---4---4---4-------------------|---------------------------------| 

G|---------------------------------|---------------------------------| 
D|---------------------------------|---------------------------------| 
A|-3-------------------------------|---------------------------------| 
E|---------------------------------|---------------------------------| 
	  

Search Paypal
auto scroll beats size up size down change color hide chords drawings
tab show chords e-chords YouTube Clip e-chords hide all tabs e-chords go to top tab