Dragon Ball

Cançao De Tapion

Dragon Ball

tabs

by  CARLLUZ

save to print version add songbook text version e-mail correct tuner
chordsukulelecavacokeyboardtabbassdrumsharmonicaflute Guitar Pro
close

there isn't a video lesson for this song

chords

Cançao De Tapion

	  		E|------------------------------------------------------------------| 
B|------------------------------------------------------------------| 
G|------------------------------------------------------------------| 
D|---------3----10---8---6---8-------3---5---6-------6---8---6---5--| 
A|--3---3-----------------------------------------------------------| 
E|------------------------------------------------------------------| 

E|------------------------------------------------------------------| 
B|------------------------------------------------------------------| 
G|------------------------------------------------------------------| 
D|---------3----10---8---6---8-------3---5---6---6---5---3---1---3--| 
A|--3---3-----------------------------------------------------------| 
E|------------------------------------------------------------------| 
		  

auto scroll beats size up size down change color hide chords drawings
tab show chords e-chords YouTube Clip e-chords hide all tabs e-chords go to top tab

share