Dokken

Back For The Attack

Dokken

tabs

by  TAMAMOREIRA

save to print version add songbook text version e-mail correct tuner
chordsukulelecavacokeyboardtabbassdrumsharmonicaflute Guitar Pro
close

there isn't a video lesson for this song

chords

Back For The Attack

	  		

Guitar 



             E  Q.     E  Q.        E  Q.     E  Q.        E  E  H.             
E||-------|----------------------|----------------------|---------------------| 
B||-------|----------------------|-----3------L---------|---------------------| 
G||-------|--2--5------2--0------|--L--2------L--0------|--2--2---------------| 
D||-------|--2--5------2--0------|--L--0------L--0------|--2--2---------------| 
A||-------|--0--3------0---------|----------------------|--0--0---------------| 
E||-------|---------------3------|--L------------3------|---------------------| 


  W                   E  Q.     E  Q.        E  Q.     E  Q.       
-------------------|----------------------|----------------------| 
-------------------|----------------------|-----3------L---------| 
-------------------|--2--5------2--0------|--L--2------L--0------| 
-------------------|--2--5------2--0------|--L--0------L--0------| 
-------------------|--0--3------0---------|----------------------| 
-------------------|---------------3------|--L------------3------| 


  E  E  H.              E  E  H.              E  Q.     E  Q.       
---------------------|---------------------|----------------------| 
---------------------|---------------------|----------------------| 
--2--2---------------|--5--2---------------|--2--5------L--0------| 
--2--2---------------|--5--2---------------|--2--5------L--0------| 
--0--0---------------|--3--0---------------|--0--3------L---------| 
---------------------|---------------------|---------------3------| 


                                               PM PM         PM PM      
  E  H        Q.        Q    E  Q.     Q       E  E  Q    E  E  E  E    
---------------------|----------------------|-------------------------| 
-----3--------L------|--L-------------------|-------------------------| 
--L--2--------L------|--L-------------------|--------7----9--------5--| 
--L--0--------L------|--L-------------------|--------5----7--------5--| 
---------------------|-------3--2------3----|--0--0----------0--0-----| 
--L------------------|----------------------|-------------------------| 


  PM    PM PM        W       PM PM         PM PM      
  E  E  E  E  Q      Q       E  E  Q    E  E  E  E    
--------------------------|-------------------------| 
--------------------------|-------------------------| 
-----7--------------------|--------7----9--------5--| 
-----7--------------------|--------5----7--------5--| 
--0-----0--0--3----<>5----|--0--0----------0--0-----| 
--------------------------|-------------------------| 


  PM    PM PM   SH   SH   W       PM PM         PM PM      
  E  E  E  E    E    E    Q       E  E  Q    E  E  E  E    
-------------------------------|-------------------------| 
-------------------------------|-------------------------| 
-----7-------------------------|--------7----9--------5--| 
-----4-------------------------|--------5----7--------5--| 
--0-----0--0--<>3--<>3--<>3----|--0--0----------0--0-----| 
-------------------------------|-------------------------| 


  PM    PM PM               PM PM                                               
  E  E  E  E  Q    Q        E  E  Q    E   Q     E     E  E  E  Q    E  E  E    
-------------------------|--------------------------|-------------------------| 
-------------------------|--------------------------|-----------3-------------| 
-----7-------------5~----|--------7----9------------|-----------2----------2--| 
-----4-------------5~----|--------5----7---------5--|--L--------0----------2--| 
--0-----0--0--3----L-----|--0--0----------12\----3--|--L--2--0-------3--2--0--| 
-------------------------|--------------------------|-------------------------| 


  W                   W                   W                   
-------------------|-------------------|--------------------| 
-------------------|-------------------|--------------------| 
--L----------------|--L----------------|--5~----------------| 
--L----------------|--L----------------|--5~----------------| 
--L----------------|--L----------------|--------------------| 
-------------------|-------------------|--------------------| 


                          PM PM    PM    PM PM PM    PM PM                   
  H.             Q        E  E  E  E  E  E  E  E     E  E  E  E  H           
-----------------------|--------------------------|------------------------| 
-----------------------|--------------------------|------------------------| 
--L~-------------------|--------5-----7-----------|--------4--5--5~--------| 
--L~-------------------|--------7-----7-----------|--------5--5--5~--------| 
----------------12\----|--0--0-----0-----0--0--0--|--0--0------------------| 
-----------------------|--------------------------|------------------------| 


  PM PM    PM    PM PM PM    PM PM PM PM                                    
  E  E  E  E  E  E  E  E     E  E  E  E   H            E  H.           E    
--------------------------|-------------------------|---------------------| 
--------------------------|-------------------------|---------------------| 
--------5-----7-----------|-------------------------|--2--2------------L--| 
--------7-----7-----------|-------------------------|--2--2------------L--| 
--0--0-----0-----0--0--0--|--0--0--0--0--12\--------|--0--0------------L--| 
--------------------------|-------------------------|---------------------| 


                                                       \1/        
  W                   W                    H           H          
-------------------|--------------------|-----------------------| 
-------------------|--------------------|-----------------------| 
--L----------------|--5~----------------|--L~--------<>2--------| 
--L----------------|--5~----------------|--L~-------------------| 
--L----------------|--------------------|-----------------------| 
-------------------|--------------------|-----------------------| 


  PM PM    PM    PM PM PM    PM PM                    PM PM    PM    PM PM PM   
  E  E  E  E  E  E  E  E     E  E  E  E  H            E  E  E  E  E  E  E  E    
--------------------------|------------------------|--------------------------| 
--------------------------|------------------------|--------------------------| 
--------5-----7-----------|--------4--5--5~--------|--------5-----7-----------| 
--------7-----7-----------|--------5--5--5~--------|--------7-----7-----------| 
--0--0-----0-----0--0--0--|--0--0------------------|--0--0-----0-----0--0--0--| 
--------------------------|------------------------|--------------------------| 


  PM PM PM                                                           
  E  E  E  E  H           W                   H        E  E  E  E    
-----------------------|-------------------|-----------------------| 
-----------------------|-------------------|--------------------3--| 
-----------5--4--------|--2----------------|--L-----------------0--| 
-----------5--5--------|--2----------------|--L--------L-----------| 
--0--0--0--------------|--0----------------|--L--------L--0--2--3--| 
-----------------------|-------------------|-----------------------| 


                                    PM PM                            
  H.           E  E     H        E  E  E  E     H.           E  E    
---------------------|-----------------------|---------------------| 
------------------3--|--L--------L--------3--|------------------3--| 
--L---------------2--|--L--------L--------0--|--L---------------2--| 
---------------x--0--|--L--------L-----------|---------------x--0--| 
--L------------x-----|--------------0--2--3--|--L------------x-----| 
---------------------|-----------------------|---------------------| 


              PM PM                                                
  H        E  E  E  E     H.           E  E     W                  
-----------------------|---------------------|-------------------| 
--L--------L--------3--|------------------3--|-------------------| 
--L--------L--------0--|--L---------------0--|-------------------| 
--L--------L-----------|---------------x--0--|-------------------| 
--------------0--2--3--|--L------------x-----|-------------------| 
-----------------------|------------------3--|-------------------| 


  PM PM         PM PM       PM    PM PM        W       PM PM         PM PM      
  E  E  Q    E  E  E  E     E  E  E  E  Q      Q       E  E  Q    E  E  E  E    
-------------------------|--------------------------|-------------------------| 
-------------------------|--------------------------|-------------------------| 
--------7----9--------5--|-----7--------------------|--------7----9-----------| 
--------5----7--------5--|-----7--------------------|--------5----7--------0--| 
--0--0----------0--0-----|--0-----0--0--3----<>2----|--0--0----------0--0-----| 
-------------------------|--------------------------|-------------------------| 


           PM              PM PM         PM PM PM    PM PM PM PM PM PM          
  E  E  E  E  Q.     E     E  E  Q    E  E  E  E     E  E  E  E  E  E  E   E    
------------------------|-------------------------|---------------------------| 
--------------3---------|-------------------------|---------------------------| 
--5-----5------------2--|--L-----7----9-----------|--------------------4s--5--| 
-----0---------------2--|--L-----5----7-----------|--------------------4s--5--| 
-----------3---------0--|--L--0----------0--0--0--|--0--0--0--0--0--0---------| 
------------------------|-------------------------|---------------------------| 


  Q.     H        E     Q.     H        E     W                  
---------------------|---------------------|-------------------| 
------------------3--|--L------------------|-------------------| 
--L------0--------2--|--L------0--------2--|--L----------------| 
--L------0--------0--|--L------0--------2--|--L----------------| 
---------------------|------------------0--|--L----------------| 
---------3-----------|---------3-----------|-------------------| 


                                                           \1/    
  W                   W                    H.              Q      
-------------------|--------------------|-----------------------| 
-------------------|--------------------|-----------------------| 
--L----------------|--5~----------------|--L~------------<>2----| 
--L----------------|--5~----------------|--L~-------------------| 
--L----------------|--------------------|-----------------------| 
-------------------|--------------------|-----------------------| 


  PM PM    PM    PM PM PM    PM PM                    PM PM    PM    PM PM PM   
  E  E  E  E  E  E  E  E     E  E  E  E  H            E  E  E  E  E  E  E  E    
--------------------------|------------------------|--------------------------| 
--------------------------|------------------------|--------------------------| 
--------5-----7-----------|--------4--5--5~--------|--------5-----7-----------| 
--------7-----7-----------|--------5--5--5~--------|--------7-----7-----------| 
--0--0-----0-----0--0--0--|--0--0------------------|--0--0-----0-----0--0--0--| 
--------------------------|------------------------|--------------------------| 


  PM PM PM PM                                                      
  E  E  E  E   H            W                   W                  
-------------------------|-------------------|-------------------| 
-------------------------|-------------------|-------------------| 
-------------------------|--2----------------|--L----------------| 
-------------------------|--2----------------|--L----------------| 
--0--0--0--0--12\--------|--0----------------|--L----------------| 
-------------------------|-------------------|-------------------| 


                                           PH       PM PM    PM    PM PM PM   
  W                    H           Q       Q        E  E  E  E  E  E  E  E    
--------------------|----------------------------|--------------------------| 
--------------------|----------------------------|--------------------------| 
--5~----------------|--L~--------<>5~------------|--------5-----7-----------| 
--5~----------------|--L~----------------<>5~----|--------7-----7-----------| 
--------------------|----------------------------|--0--0-----0-----0--0--0--| 
--------------------|----------------------------|--------------------------| 


  PM PM                    PM PM    PM    PM PM PM    PM PM PM               
  E  E  E  E  H            E  E  E  E  E  E  E  E     E  E  E  E  H          
------------------------|--------------------------|-----------------------| 
------------------------|--------------------------|-----------------------| 
--------4--5--5~--------|--------5-----7-----------|-----------5--4--------| 
--------5--5--5~--------|--------7-----7-----------|-----------5--5--------| 
--0--0------------------|--0--0-----0-----0--0--0--|--0--0--0--------------| 
------------------------|--------------------------|-----------------------| 


  W                   H        E  E  E  E     H.           E  E    
-------------------|-----------------------|---------------------| 
-------------------|--------------------3--|------------------3--| 
--2----------------|--L-----------------0--|--L---------------2--| 
--2----------------|--L--------L-----------|---------------x--0--| 
--0----------------|--L--------L--0--2--3--|--L------------x-----| 
-------------------|-----------------------|---------------------| 


              PM PM                                         PM PM      
  H        E  E  E  E     H.           E  E     H        E  E  E  E    
-----------------------|---------------------|-----------------------| 
--L--------L--------3--|------------------3--|--L--------L--------3--| 
--L--------L--------0--|--L---------------2--|--L--------L--------0--| 
--L--------L-----------|---------------x--0--|--L--------L-----------| 
--------------0--2--3--|--L------------x-----|--------------0--2--3--| 
-----------------------|---------------------|-----------------------| 


              PM PM                           PM PM         PM PM      
  H        E  E  E  E     W                   E  E  Q    E  E  E  E    
-----------------------|-------------------|-------------------------| 
--------------------3--|-------------------|-------------------------| 
--L--------L--------0--|-------------------|--------7----9--------5--| 
--------------------0--|-------------------|--------5----7--------5--| 
--L--------L--0--2--x--|-------------------|--0--0----------0--0-----| 
--------------------3--|-------------------|-------------------------| 


  PM    PM PM        W       PM PM         PM PM                PM             
  E  E  E  E  Q      Q       E  E  Q    E  E  E  E     E  E  E  E  Q.     E    
--------------------------|-------------------------|------------------------| 
--------------------------|-------------------------|--1-----1-----3---------| 
-----7--------------------|--------7----9-----------|---------------------2--| 
-----7--------------------|--------5----7--------0--|-----0---------------2--| 
--0-----0--0--3----<>2----|--0--0----------0--0-----|-----------3---------0--| 
--------------------------|-------------------------|------------------------| 


  PM PM         PM PM PM    PM    PM         PM                               
  E  E  Q    E  E  E  E     E  E  E   E  E   E  E  E     Q.     H        E    
-------------------------|----------------------------|---------------------| 
-------------------------|----------------------------|------------------3--| 
--L-----7----9-----------|-------------------------5--|--L------0--------2--| 
--L-----5----7-----------|-------------------------5--|--L------0--------0--| 
--L--0----------0--0--0--|--0--0--3p--0--3p--0--2--3--|---------------------| 
-------------------------|----------------------------|---------3-----------| 


                        PM PM         PM PM       PM    PM PM        W      
  Q.     H        E     E  E  Q    E  E  E  E     E  E  E  E  Q      Q      
---------------------|-------------------------|--------------------------| 
--L------L-----------|-------------------------|--------------------------| 
--L------L--------2--|--------7----9--------5--|-----7--------------------| 
--L------L--------2--|--------5----7--------5--|-----7--------------------| 
------------------0--|--0--0----------0--0-----|--0-----0--0--3----<>5----| 
---------------------|-------------------------|--------------------------| 


  PM PM         PM PM                PM                PM PM         PM PM PM   
  E  E  Q    E  E  E  E     E  E  E  E  E  E  E  E     E  E  Q    E  E  E  E    
-------------------------|--------------------------|-------------------------| 
-------------------------|--------------3-----3-----|-------------------------| 
--------7----9-----------|--5-----5--------0-----2--|--L-----7----9-----------| 
--------5----7-----------|-----------------------2--|--L-----5----7-----------| 
--0--0----------0--0--5--|-----5-----3-----------0--|--L--0----------0--0--0--| 
-------------------------|--------------------------|-------------------------| 


  PM PM PM PM PM PM                                                     
  E  E  E  E  E  E  E  E     Q.     H        E     Q.     H        E    
--------------------------|---------------------|---------------------| 
-----------------------3--|------------------3--|--L------------------| 
-----------------------0--|--L------0--------2--|--L------0--------2--| 
--------------------------|---------0--------0--|--L------0--------2--| 
--0--0--0--0--0--0--2--3--|--L------------------|------------------0--| 
--------------------------|---------3-----------|---------3-----------| 


  W                   H        Q    E    E     H         E   E  E   E    
-------------------|------------------------|--------------------------| 
-------------------|------------------------|-------------------8--10--| 
-------------------|-------------------7g9--|--L~--------L\--9---------| 
-------------------|------------------------|--------------------------| 
-------------------|------------------------|--------------------------| 
-------------------|------------------------|--------------------------| 


                        PH                                          
   E.     S  S  S  S    Q.        S E     E  E  E  Q    E  E   E    
---------------------------------------|--------------------------| 
---Lbr---10p-8-10p-8-<>10brb-----------|--------------------------| 
---------------------------------------|--------------------------| 
------------------------------------7--|--L--5--4--5----4---------| 
---------------------------------------|-------------------5--/7--| 
---------------------------------------|--------------------------| 


  H.           E    E    
-----------------------| 
------------------/15--| 
-----------------------| 
-----------------------| 
--L------------L-------| 
-----------------------| 


   |---3--|                                                  
   S  S   S  S   S   S   S S   S   S   S  S  S  S  S  S  S   
-----------------------------------------------------------| 
---L-13p-12-15p-13p-12s-10-8h-10h-12p-10p-8s-7-10p-8p-7s-5-| 
-----------------------------------------------------------| 
-----------------------------------------------------------| 
-----------------------------------------------------------| 
-----------------------------------------------------------| 


  S  S  S S  S  S S  S S  S  S S S  S E     E  E  E  Q    E  E  E     
-----------------------------------------|--------------------------| 
--8p-7p-5--------------------------------|--------------------------| 
----------7h-9p-7-5s-4-7p-5p-4---5p-4----|--------------------------| 
-------------------------------7------7--|--L--5--4--5----4---------| 
-----------------------------------------|-------------------5--7~--| 
-----------------------------------------|--------------------------| 


                                      PM PM PM        
  Q.     H         E     Q       Q    E  E  E    E    
----------------------|-----------------------------| 
----------------------|-----------------------------| 
-------------------5--|--Lbrb----L----7--7--5--<>7--| 
----------------------|-----------------------------| 
--L------5~-----------|-----------------------------| 
----------------------|-----------------------------| 


                                                PM   PM   PM   PM           
  E  S  S  E  E  Q.        E     S    S S S S S S  S S  S S  S S  S   S S   
------------------------------|-------------------------------------------| 
------------------------------|-------------------------------------------| 
--L------------------------5--|--Lbrb-----------7----7----7----5----<>7---| 
-----5h-7p-5--4--4brb---------|-------------------------------------------| 
------------------------------|-------------------------------------------| 
------------------------------|--x----x-x-x-x-x-x--x-x--x-x--x-x--x---x-x-| 


  E  E    H         E   E    
---------------------------| 
--------<>5b--------L\-----| 
--L------------------------| 
---------------------------| 
---------------------------| 
---------------------------| 


       T      T      T      T      T      T      T          
   S   S  S   S  S   S  S   S  S   S  S   S  S   S  S   S   
----------------------------------------------------------| 
--15h-17-13h-17-12h-17-10h-17-15h-17-13h-17-12h-17-12s-10-| 
----------------------------------------------------------| 
----------------------------------------------------------| 
----------------------------------------------------------| 
----------------------------------------------------------| 


       T      T     T     T     T      T     T     T   
   S   S  S   S S   S S   S S   S  S   S S   S S   S   
-----------------------------------------------------| 
--10h-12-10h-12-8h-12-7h-12-5h-12-10h-12-8h-12-7h-12-| 
-----------------------------------------------------| 
-----------------------------------------------------| 
-----------------------------------------------------| 
-----------------------------------------------------| 


                                            overdub                  
  T    T    T    T    T    T    T    T      \1/                      
  S S  S S  S S  S S  S S  S S  S S  S S    Q       E  Q.     Q      
-----------------------------------------|-------------------------| 
-----------------------------------------|--L----------------------| 
--7-5h-7-4h-7-4h-7-2h-7-2h-7-0h-7-0h-7-x-|--L----------------------| 
-----------------------------------------|--L----------------------| 
-----------------------------------------|----------3--2------3----| 
-----------------------------------------|-------------------------| 


  PM PM         PM PM       PM    PM PM                PM PM         PM PM      
  E  E  Q    E  E  E  E     E  E  E  E  E  E  Q        E  E  Q    E  E  E  E    
-------------------------|--------------------------|-------------------------| 
-------------------------|--------------------------|-------------------------| 
--------7----9--------5--|-----7--------------------|--------7----9--------5--| 
--------5----7--------5--|-----7-----------5--------|--------5----7--------5--| 
--0--0----------0--0-----|--0-----0--0--3-----5~----|--0--0----------0--0-----| 
-------------------------|--------------------------|-------------------------| 


  PM    PM PM   SH   SH   W       PM PM         PM PM      
  E  E  E  E    E    E    Q       E  E  Q    E  E  E  E    
-------------------------------|-------------------------| 
-------------------------------|-------------------------| 
-----7-------------------------|--------7----9--------5--| 
-----4-------------------------|--------5----7--------5--| 
--0-----0--0--<>3--<>3--<>3----|--0--0----------0--0-----| 
-------------------------------|-------------------------| 


  PM    PM PM                PM PM                                               
  E  E  E  E  E  E  Q        E  E  Q    E   Q     E     E  E  E  Q    E  E  E    
--------------------------|--------------------------|-------------------------| 
--------------------------|--------------------------|-----------3-------------| 
-----7-----------5--------|--------7----9------------|-----------2----------2--| 
-----4-----------5--------|--------5----7---------5--|--L--------0----------2--| 
--0-----0--0--3--L--5~----|--0--0----------12\----3--|--L--2--0-------3--2--0--| 
--------------------------|--------------------------|-------------------------| 


               PM PM       PM    PM PM                PM PM         PM PM      
  Q    Q    E  E  E  E     E  E  E  E  E  E  E  E     E  E  Q    E  E  E  E    
------------------------|--------------------------|-------------------------| 
------------------------|--------------------------|-------------------------| 
--L----7----9--------5--|-----7--------------------|--------7----9-----------| 
--L----5----7--------5--|-----7-----------5-----7--|--------5----7--------0--| 
--L------------0--0-----|--0-----0--0--3-----5-----|--0--0----------0--0-----| 
------------------------|--------------------------|-------------------------| 


           PM              PM PM         PM PM PM    PM    PM         PM         
  E  E  E  E  Q.     E     E  E  Q    E  E  E  E     E  E  E   E  E   E  E  E    
------------------------|-------------------------|----------------------------| 
--1-----1-----3---------|-------------------------|----------------------------| 
---------------------2--|--L-----7----9-----------|-------------------------5--| 
-----0---------------2--|--L-----5----7-----------|-------------------------5--| 
-----------3---------0--|--L--0----------0--0--0--|--0--0--3p--0--3p--0--2--3--| 
------------------------|-------------------------|----------------------------| 


                                                           PM PM      
  Q.     H        E     Q.     H        E     Q    Q    E  E  E  E    
---------------------|---------------------|------------------------| 
------------------3--|--L------L-----------|------------------------| 
--L------0--------2--|--L------L--------2--|--L----7----9--------5--| 
--L------0--------0--|--L------L--------2--|--L----5----7--------5--| 
---------------------|------------------0--|--L------------0--0-----| 
---------3-----------|---------------------|------------------------| 


  PM    PM PM                PM PM         PM PM                PM             
  E  E  E  E  E  E  E  E     E  E  Q    E  E  E  E     E  E  E  E  Q.     E    
--------------------------|-------------------------|------------------------| 
--------------------------|-------------------------|--1-----1-----3---------| 
-----7--------------------|--------7----9-----------|---------------------2--| 
-----7-----------5-----7--|--------5----7--------0--|-----0---------------2--| 
--0-----0--0--3-----5-----|--0--0----------0--0-----|-----------3---------0--| 
--------------------------|-------------------------|------------------------| 


  PM PM         PM PM PM    PM    PM         PM                               
  E  E  Q    E  E  E  E     E  E  E   E  E   E  E  E     Q.     H        E    
-------------------------|----------------------------|---------------------| 
-------------------------|----------------------------|------------------3--| 
--L-----7----9-----------|-------------------------5--|--L------0--------2--| 
--L-----5----7-----------|-------------------------5--|--L------0--------0--| 
--L--0----------0--0--0--|--0--0--3p--0--3p--0--2--3--|---------------------| 
-------------------------|----------------------------|---------3-----------| 


                                     PM PM       PM    PM PM               
  Q.     H        E     Q    Q    E  E  E  E     E  E  E  E  E  E  E  E    
---------------------|------------------------|--------------------------| 
--L------L-----------|------------------------|--------------------------| 
--L------L--------2--|--L----7----9--------5--|-----7--------------------| 
--L------L--------2--|--L----5----7--------5--|-----7-----------5-----7--| 
------------------0--|--L------------0--0-----|--0-----0--0--3-----5-----| 
---------------------|------------------------|--------------------------| 


  PM PM         PM PM                PM              PM PM         PM PM PM   
  E  E  Q    E  E  E  E     E  E  E  E  Q.     E     E  E  Q    E  E  E  E    
-------------------------|------------------------|-------------------------| 
-------------------------|--1-----1-----3---------|-------------------------| 
--------7----9-----------|---------------------2--|--L-----7----9-----------| 
--------5----7--------0--|-----0---------------2--|--L-----5----7-----------| 
--0--0----------0--0-----|-----------3---------0--|--L--0----------0--0--0--| 
-------------------------|------------------------|-------------------------| 


  PM PM PM PM PM                                                           
  E  E  E  E  E  E  E  E      Q.     H        E     Q.     Q    E  E  E    
---------------------------|---------------------|-----------------------| 
---------------------------|------------------3--|--L--------------------| 
-----------------------5---|--L------0--------2--|--L------2-------------| 
-----------------------5---|--L------0--------0--|--L------2-------------| 
--0--0--0--0--0--0--2--3~--|---------------------|---------0----3--2--0--| 
---------------------------|---------3-----------|-----------------------| 


               PM PM       PM    PM PM                PM PM         PM PM      
  Q    Q    E  E  E  E     E  E  E  E  E  E  E  E     E  E  Q    E  E  E  E    
------------------------|--------------------------|-------------------------| 
------------------------|--------------------------|-------------------------| 
-------7----9--------5--|-----7--------------------|--------7----9-----------| 
-------5----7--------5--|-----7-----------5-----7--|--------5----7--------0--| 
--L------------0--0-----|--0-----0--0--3-----5-----|--0--0----------0--0-----| 
------------------------|--------------------------|-------------------------| 


           PM              PM PM         PM PM PM    PM    PM     PM PM          
  E  E  E  E  Q.     E     E  E  Q    E  E  E  E     E  E  E   E  E  E  E  E     
------------------------|-------------------------|----------------------------| 
--1-----1-----3---------|-------------------------|----------------------------| 
---------------------2--|--L-----7----9-----------|------------------------5---| 
-----0---------------2--|--L-----5----7-----------|------------------------5---| 
-----------3---------0--|--L--0----------0--0--0--|--0--0--3p--0--0--0--0--3~--| 
------------------------|-------------------------|----------------------------| 


                                                    <                 
  Q.     H        E     Q.     Q.     E  E     Q    H        E  E     
---------------------|----------------------|----------------------|| 
------------------3--|--L-------------------|----------------------|| 
--L------0--------2--|--L------2------------|----------------------|| 
--L------0--------0--|--L------2------2--2--|-------5--------5--2--|| 
---------------------|---------0------0--0--|-------3--------3--0--|| 
---------3-----------|----------------------|----------------------|| 




Duration Legend 
--------------- 
W - whole 
H - half 
Q - quarter 
E - 8th 
S - 16th 
T - 32nd 
X - 64th 
. - note dotted 
|-n-|  - n-tuplets 


Tablature Legend 
---------------- 
L - tied note 
x - dead note 
g - grace note 
(n) - ghost note 
> - accentuded note 
NH - natural harmonic 
AH - artificial harmonic 
TH - tapped harmonic 
SH - semi harmonic 
PH - pitch harmonic 
h - hammer on 
p - pull off 
b - bend 
br - bendRelease 
pb - preBend 
pbr - preBendRelease 
brb - bendReleaseBend 
\n/ - tremolo bar dip 
\n - tremolo bar dive 
-/n - tremolo bar Release up 
/n\ - tremolo bar inverted dip 
/n - tremolo bar return 
-\n - tremolo bar Release down 
S - shift slide 
s - legato slide 
/ -  slide into from below or out of upwards 
\ -  slide into from above or out of downwards 
~ - vibrato 
W - wide vibrato 
tr - trill 
TP - tremolo picking 
T - tapping 
S - slap 
P - pop 
< - fade in 
^ - brush up 
v - brush down 
		  

See also:

tabs X-files - Theme Song tabs Eddie Cochran - Summer time blues tabs Tenacious D - Wonderboy (ver. 1) tabs Poison - Unskinny Bop tabs Tenacious D - Her Gently tabs The Donnas - Take It Off
e-chords

Other versions:

tabs Dokken - Back For The Attack
auto scroll beats size up size down change color hide chords drawings
tab show chords e-chords YouTube Clip e-chords hide all tabs e-chords go to top tab

share