Dokken

Everybody Needs To Be With Someone

Dokken

tabs

by  GUSTSILVA

save to print version add songbook text version e-mail correct tuner
chordsukulelecavacokeyboardtabbassdrumsharmonicaflute Guitar Pro
close

there isn't a video lesson for this song

chords

Everybody Needs To Be With Someone

	  		Solo 

E|----------------------|----------------------|--------------------|------------------| 
B|----------------------|----------------------|--------------------|------------------| 
G|-11/12---12h14~~~~~---|_______-----12h14p12--|-11h12p11-----------|------------------| 
D|----------------------|----------------------|----------12-10-/12-|-10~~-------------| 
A|----------------------|----------------------|--------------------|------------------| 
D|----------------------|----------------------|--------------------|------------------| 

E|-17pb20_____________r-|-17~~~~---------17-15-|-13qb-------------------|--------------------| 
B|----------------------|----------------------|------15-13-------13/15-|--------------------| 
G|----------------------|----------------------|------------12----------|-10PH---------------| 
D|----------------------|----------------------|---------------15-------|-------12~~---------| 
A|----------------------|----------------------|------------------------|--------------------| 
D|----------------------|----------------------|------------------------|--------------------| 

E|-15qb-------13--------|----------------------|------------10----------------|--------------------------| 
B|----------------15-13-|----------------------|-13b15~~~-----13p10-----10-10-|--------------------------| 
G|----------------------|-12----12/14-12~~-----|-------------------12b14------|-12-10--------------------| 
D|----------------------|----15----------------|------------------------------|------12-10---------------| 
A|----------------------|----------------------|------------------------------|-----------12-11-10-8-----| 
D|----------------------|----------------------|------------------------------|---------------------12~--| 

E|-15qb-------13--------|------------------------|-----------------------------| 
B|----------------15-13-|------------------------|-----------------------------| 
G|----------------------|-12----12/14------------|-----------------------------| 
D|----------------------|----15-------15~--12p10-|-/12~~~~---------------------| 
A|----------------------|------------------------|-/12~~~~---------------------| 
D|----------------------|------------------------|-----------------------------| 


************************************ 

| x   Dead note 
| g   Grace note 
| (n) Ghost note 
| h   Hammer-on 
| p   Pull-off 
| r   Release 
| >   Accented note 
| t   Tapping 
| b   Bend 
| br  Bend release 
| pb  Pre-bend 
| pbr Pre-bend release 
| /   Slide up 
| \   Slide down 
| ~   Vibrato 
| s   Slap 
| P   Pop 
| PM  Palm mute 
| TR  Trill 
| N   Tremolo 

************************************ 
		  

See also:

tabs X-files - Theme Song tabs Eddie Cochran - Summer time blues tabs Tenacious D - Wonderboy (ver. 1) tabs Poison - Unskinny Bop tabs Tenacious D - Her Gently tabs The Donnas - Take It Off
e-chords

Other versions:

tabs Dokken - Everybody Needs To Be With Someone
auto scroll beats size up size down change color hide chords drawings
tab show chords e-chords YouTube Clip e-chords hide all tabs e-chords go to top tab

share