Dispatch

Carry you

Dispatch

tabs

save to print version add songbook text version e-mail correct tuner
chordsukulelecavacokeyboardtabbassdrumsharmonicaflute Guitar Pro
close

there isn't a video lesson for this song

chords

Carry you

	  		 
Intro/Verse: 
 
e--2^3-2------------------2-2-- 
B--3---3--3-3-------------3-3-- 
G---------2-2----2p0----------- 
D-------------------2-0-------- 
A------------------------------ 
E------------------------------ 
 
Chorus:  
          Bm     G         D 
e---------2--2---3--3--3---2--2--2--2-- 
B---------3--3---2--2--2---3--3--3--3-- 
G---------4--4---0--0--0---2--2--2--2-- 
D------0--4--4---0--0--0---0--0--0--0-- 
A--0^2----2--2---2--2--2---0--0--0--0-- 
E --------2--2---2--2--2---0--0--0--0-- 
 
Solo: 
 
e--10-------------------------------------------------------------------   
B----12~----10----------------------------------------------------------   
G---------------11----------9-9^10-9----9-------------------------------   
D----------------------9-12----------12---12-12------9-12-9-12-9-12-----   
A-----------------------------------------------------------------------   
E-----------------------------------------------------------------------   
 
e-----------------------------------------------------------------------   
B----------------------------------------------------------10-10-10S12--   
G--------7-------------------------------------11-11-11-11--------------   
D--9-7-9---9-7-9-7S4S2---7-7-7-7^9S12-12-12-12--------------------------   
A-----------------------------------------------------------------------   
E-----------------------------------------------------------------------   
 
e-----------------------------------------------------------------------   
B----12-12S15-15~------15-12-10-12-10-----------------------------------   
G-------------------------------------11-9-7-9b10-9r-7-9-7-7------------   
D----------------------------------------------------------------------- 
A-----------------------------------------------------------------------   
E-----------------------------------------------------------------------   
 
e--  |---------------------|  --------------------------- 
B--  |---------------------|  --------------------------- 
G--  |---7-7-7-7-7-7-9-7-7-|  ---7-7-7-7-7-7--9--7~------ 
D--3X|--9-9-9-9-9-9-9---9--|  --9-9-9-9-9-9-------------- 
A--  |---------------------|  --------------------------- 
E--  |---------------------|  --------------------------- 
 
 
_______________________________________________________ 
Contribuição: Felipe Tonetti([email protected]) 

		  

Full key step upFull key step up
Half key step upHalf key step up
Half key step downHalf key step down
Full key step downFull key step down
hide glossary

See also:

tabs Blue Oyster Cult - Dont Fear The Reaper tabs Guns N' Roses - Nightrain tabs Guns N' Roses - You Could Be Mine tabs Guns N' Roses - November Rain (Ver. Acoustic) tabs Guns N' Roses - Civil War tabs Guns N' Roses - Don't Cry
e-chords

Other versions:

tabs Dispatch - Carry you tabs Millencolin - Carry You
auto scroll beats size up size down change color hide chords drawings
tab show chords e-chords YouTube Clip e-chords hide all tabs e-chords go to top tab

share