Dio

Losing My Insanity

Dio

tabs Expert expert

by  DRUMMER_COMETH

save to print version add songbook text version e-mail correct tuner
chordsukulelecavacokeyboardtabbassdrumsharmonicaflute Guitar Pro
close

there isn't a video lesson for this song

chords

Losing My Insanity

Year: 2000 - Album: Magica/Killing the Dragon

	  		|-----0-3-2---0------------|--0-3-2-0----0------------| 
|---0-------3----1-3-1-0---|-----------3----3--1-3----| 
|--------------------------|--------------------------| 
|--------------------------|--------------------------| 
|--------------------------|--------------------------| 
|--------------------------|--------------------------| 
 
|---0-3-2-0---0------------|---------------------------| 
|-0---------3---3-1-3-1-0--|-1-0---0-------------------| 
|--------------------------|-----2---2-0--2-0----------| 
|--------------------------|-------------------0-2-----| 
|--------------------------|---------------------------| 
|--------------------------|---------------------------| 
 
 

		  

See also:

tabs Heart - Barracuda tabs Eagles - Hotel California tabs The Beatles - Black Bird tabs Queen - Bohemian Rhapsody tabs Deep Purple - Smoke On The Water (Easy Intro) tabs Eric Clapton - Layla
e-chords

Other versions:

tabs Dio - Losing My Insanity
auto scroll beats size up size down change color hide chords drawings
tab show chords e-chords YouTube Clip e-chords hide all tabs e-chords go to top tab

share