Dio

Like a rainbow in the dark

Dio

tabs Advanced advanced

by  CORRAL URIAS

save to print version add songbook text version e-mail correct tuner
chordsukulelecavacokeyboardtabbassdrumsharmonicaflute Guitar Pro
close

there isn't a video lesson for this song

chords

Like a rainbow in the dark

	  		
 
Dio 
Rainbow in the dark 
 
Intro 
1:-----------------------5----------------------------------------------- 
2:-----------------------5----------------------------------------------- 
3:-2-------------------------------------------2------------------------- 
4:-2--------3-----3--5---------------h---p----2--------3-----3--5-------- 
5:-0--------3-----3--5--------3--2--0--2--0---0--------3-----3--5-------- 
6:----3--0--1--0--1--3-----0---------------------3--0--1--0--1-3--------- 
 
riif a             
1:---------------------------------------- 
2:---------------------------------------- 
3:---------------------------------------- 
4:---------------------------------------- 
5:------------------3--2------------------ 
6:---------------0--------3~-------------- 
 
[email protected] 
		  

See also:

tabs Heart - Barracuda tabs Eagles - Hotel California tabs The Beatles - Black Bird tabs Queen - Bohemian Rhapsody tabs Deep Purple - Smoke On The Water (Easy Intro) tabs Eric Clapton - Layla
e-chords

Other versions:

tabs Dio - Like a rainbow in the dark
auto scroll beats size up size down change color hide chords drawings
tab show chords e-chords YouTube Clip e-chords hide all tabs e-chords go to top tab

share