Dio

Born On The Sun

Dio

tabs Expert expert

by  DRUMMER_COMETH

save to print version add songbook text version e-mail correct tuner
chordsukulelecavacokeyboardtabbassdrumsharmonicaflute Guitar Pro
close

there isn't a video lesson for this song

chords

Born On The Sun

Year: 1990 - Album: Lock up the Wolves

	  		E||-----------------------------|-----------------------------|----------| 
B||-----------------------------|-----------------------------|----------| 
G||--------3------3----3-----3--|--------3------3----3-----3--|----------| 
D||--------3------3----3-----3--|--------3------3----3-----3--|----------| 
A||-----------------------------|-----------------------------|----------| 
E||--1---1----1-1----1---1-1----|--4---4----4-4----4---4-4----|----------| 
 
 
                                                                                
--------------------------|------------------------|--------------------------| 
--------------------------|------------------------|--------------------------| 
--------------3-----------|--------------3----5----|--------------3-----------| 
-------5-3----3-----------|-------5-3----3----5----|-------5-3----3-----------| 
-----------5--1----3-1----|-----------5--1----3----|-----------5--1----3-1----| 
--3~-------------------1--|--3~--------------------|--3~-------------------1--| 
 
 
                                                        
---------------------------|--------------------------| 
----------------------11---|--------------------------| 
----------------------10---|--------------3-----------| 
--5----3----5---------8----|-------5-3----3-----------| 
--------------------8------|-----------5--1----3-1----| 
--3----1----3--8-10--------|--3~-------------------1--| 
 
 
                                                                                 
-------------------------|--------------------------|--------------------------| 
-------------------------|--------------------------|--------------------------| 
---------------3----5----|--------------3-----------|----------------3----2----| 
-------5-3-----3----5----|-------5-3----3-----------|--------5-3-----3----2----| 
-----------5-3-1----3----|-----------5--1----3-1----|------------5-3-1----0----| 
--3~---------------------|--3~-------------------1--|--3~--3-------------------| 
 
 
                                                                           
-----------------------|------------------------|------------------------| 
-----------------------|------------------------|------------------------| 
--5------5--3----------|--5------5--7-----------|--8------8--7-----------| 
--5------5--3----------|--5------5--8-----------|--8------8--8-----------| 
--3--3-3-3-------------|--3--3-3-3--------------|------------------------| 
-----------------------|---------------------8--|-----8-8-------------8--| 
 
 
                                                      
---------------------------|------------------------| 
---------------------------|----------------4-3-----| 
--5------5--3--------3--1--|--------------3---------| 
--5------5--3--------3--1--|----------3-5-----------| 
--3--3-3-3--1----1-1-------|------------------------| 
---------------------------|--------------------6b--| 
 
 
                                                                    
-----------------------------|-------------------------|----------| 
-----------------------------|-------------------------|----------| 
-----------------------------|------------3---5--------|----------| 
-----------------------------|------------3---5--------|----------| 
--3---x-x--x-x-x--x-x-x--x-x-|--x--x-x-x----1----------|----------| 
-----------------------------|-------------------------|----------| 
 
 
                                                                   
--------------------|----------------------|---------------------| 
--------------------|----------------------|------------6--------| 
--------------------|-------5---------7----|--5----5----7--------| 
--8-----------------|--6----5----8----8----|--5----5----8--------| 
--8-----------------|--6---------8---------|--3----3-------------| 
--6--------------6--|--4---------6---------|---------------------| 
 
 
                                                                                
---------------|-----------------------------|-----------|--------------------| 
---------------|---------------------4-3-----|-----------|--------------------| 
--7h-8--8p7----|----------5--------------3---|--5--------|--------------------| 
------------8--|--5-------5----------------3-|--5--------|--8-----------------| 
---------------|--3-3-3-3-3------3-3---------|--3--------|--8------------x----| 
---------------|-----------------------------|-----------|--6-----------------| 
 
 
                                                                          
----------------------|-----------------------|-------------------------| 
----------------------|-----------------------|-------------------------| 
-------5---------7----|--5------5--3----------|--5------5--7------------| 
--6----5----8----8----|--5------5--3----------|--5------5--8------------| 
--6---------8---------|--3--3-3-3-------------|--3--3-3-3---------------| 
--4---------6---------|-----------------------|---------------------3/8-| 
 
 
                                                         
---------------------------|---------------------------| 
--8-----8-----6------------|---------------------------| 
----8-----8-----7----------|--5------5-7-3--------3----| 
------8-----8-----8~-------|--5------5-6-3--------3----| 
---------------------------|--3---------------1-1------| 
---------------------------|-----8-8-------------------| 
 
 
                                                                 
---------------------------|--------------|--------------------| 
---------------------------|--------------|--------------------| 
--5------8----5------10----|--5------8----|--------------------| 
--5------8----5------10----|--5------8----|--8-----------------| 
--3--3-3------3--3-3-------|--3--3-3------|--8-----------------| 
---------------------------|--------------|--6--------------8--| 
 
 
                                                               
----------------------|----------------------|---------------| 
----------------------|-------------6--------|---------------| 
-------5---------7----|--5----------7--------|----8p7-8p7----| 
--6----5----8----8----|--5----------8--------|---------------| 
--6---------8---------|--3------3-3----------|------------6--| 
--4---------6---------|----------------------|---------------| 
 
 
                                                                 
---------------------------|--------------|--------------------| 
---------------------------|--------------|--------------------| 
----5----8------5----10----|----5----8----|--------------------| 
----5----8------5----10----|----5----8----|--8-----------------| 
--3----3------3----3-------|--3----3------|--8--------------x--| 
---------------------------|--------------|--6-----------------| 
 
 
                                                                    
----------------------|----------------------|--------------------| 
----------------------|----------------------|---------------x----| 
-------5---------7----|-------5---------7----|--5------------x----| 
--6----5----8----8----|--6----5----8----8----|--5-----------------| 
--6---------8---------|--6---------8---------|--3-----------------| 
--4---------6---------|--4---------6---------|--------------------| 
 
 
                                                                             
------------------------|-------------------------|------------------------| 
---------------------1--|------1------1--------8--|------8------8----------| 
--2---------2-----------|----------------------7--|------7------7----------| 
--2---------2--------3--|------3------3--------5--|------5------5----10----| 
--0-------0------0-0----|---------0-0------0-0----|---------0-0------10----| 
------------------------|-------------------------|------------------------| 
 
 
                                                                               
------------------------|--------------------------|-------------------------| 
-------1----------------|-----------------------1--|------1------1--------8--| 
--2---------5-----------|--2---------2--2-2--------|----------------------7--| 
--2----3----5-----------|--2----x----2--2-2-----3--|------3------3--------5--| 
--0--------------5-3----|--0----x----0--0-0-0-0----|---------0-0------0-0----| 
---------------------3--|--------------------------|-------------------------| 
 
 
                                                         
------------------------|------------------------------| 
------8------8----------|------------------------------| 
------7------7----------|---------7------7----7-----7--| 
------5------5----10----|--2------7------7----7-----7--| 
---------0-0------10----|--0--0-0----0-0----0---0-0----| 
------------------------|------------------------------| 
 
 
                                                                             
------------------------|--8-8-8-8-8-8-8-8-8\---x------|-------------------| 
------------------------|--8-8-8-8-8-8-8-8-8\---x--17~-|--------------8b---| 
--------7---------------|--------------------------17~-|-------------------| 
--------7------5--------|------------------------------|-------------------| 
--8---8-8--8-8-5--------|------------------------------|-------------------| 
---------------3--------|------------------------------|-------------------| 
 
 
                                                       
-----------------------------------------------------| 
--8b----8b-10-8-5-5-5-8-10-8-5-3-5-8-10-8-5---5-8-10-| 
--------------------------------------------7--------| 
-----------------------------------------------------| 
-----------------------------------------------------| 
-----------------------------------------------------| 
 
 
                                                                   
-------------------------------------|---------------------------| 
--8-5---5----------------------------|---------0b-0--------------| 
------7---7r-5---7---5---------------|---------------------4b-4~-| 
---------------7---7---7---------x---|--7--------------2-2-------| 
-------------------------5~-5--------|-----7-7-------------------| 
-------------------------------------|---------------------------| 
 
 
                                                                
---------------------------------|-----------6r-----------18r-| 
---------------------------------|---------5-----------17-----| 
------9---7---5---5---5----------|-------7b---------19b-------| 
--7-5---5---5--------------------|----------------------------| 
----------------7---5---5-3------|----------------------------| 
----------------------------5-5~-|--5-------------------------| 
 
 
                                                                                
------22-17-------20-17-15----22-17-15----20-17-15----15----------------------| 
------------20-17----------17----------17----------17----17-------20-17-------| 
------------------------------------------------------------19-17-------19-17-| 
------------------------------------------------------------------------------| 
------------------------------------------------------------------------------| 
------------------------------------------------------------------------------| 
 
 
                                                
----------------------------------------------| 
----------------------------------------20r---| 
--19-17-------19-17----17r------17------------| 
--------19-17-------19------17------17--------| 
----------------------------------------------| 
----------------------------------------------| 
 
 
                                                            
----------------------------------------------------------| 
----17----------------------------------------------------| 
-------19-17----------------------------------------14-16-| 
-------------19-17-------------------------------14-------| 
-------------------19\17-17-15-17-15\12---15--15----------| 
----------------------------------------------------------| 
 
 
                                           
--------------------------------12-15-13-| 
-----------------------------------------| 
--16b-16b-----14-16-16b-16b--14----------| 
-----------14----------------------------| 
-----------------------------------------| 
-----------------------------------------| 
 
 
                                                                      
--12----13-12----12-12----------------12----------------12----------| 
-----15-------15-------15-13-12-13-15----15-13-12-13-15----15b------| 
--------------------------------------------------------------------| 
--------------------------------------------------------------------| 
--------------------------------------------------------------------| 
--------------------------------------------------------------------| 
 
 
                                                    
------5-----8~------------------------------------| 
----5-----5-----5-8---5-8-10-8-5-10-8-5---10------| 
--7b----7b----------7-------------------7----7r-5-| 
--------------------------------------------------| 
--------------------------------------------------| 
--------------------------------------------------| 
 
 
                                                    
--------------------------------------------------| 
-----------------------------10-------------------| 
--9-----------------------10----12-10-9-10-9-10-9-| 
----12-10-9----------9-12-------------------------| 
------------10----10------------------------------| 
---------------12---------------------------------| 
 
 
                                                        
------------------------------------------------------| 
---------------------------------------------------12-| 
--10-9------12----17-12-10-9---------------9-10-12----| 
-------10-9------------------12-10-9-10-12------------| 
------------------------------------------------------| 
------------------------------------------------------| 
 
 
                                                                              
-----------13------------------------------------------|--------------------| 
--13----------12-10-------------------------10r--12-13-|--------------------| 
-----12-10----------12-10-9-10-9----9-10-12------------|--------------------| 
---------------------------------12--------------------|----------13--------| 
-------------------------------------------------------|--------------------| 
-------------------------------------------------------|--------------------| 
 
 
                                                                       
------------------|--------------------|-----------------------------| 
------------------|--------------------|-----------------------------| 
------------------|---------------2t---|--5-------8----5-------10----| 
------------------|--------------------|--5-------8----5-------10----| 
------------------|----------0---------|--3------------3-------------| 
------------------|----------x---------|----8-8-8--------8-8-8-------| 
 
 
                                                                             
---------------|-----------------------------|-----------------------------| 
---------------|-----------------------------|-----------------------------| 
--5-------8----|-----------------------------|-----------------------------| 
--5-------8----|--8------8------8---------8--|--8------8------8---------8--| 
--3------------|--8------8------8----8----8--|--8------8------8----8----8--| 
----8-8-8------|--6--6-6-6--6-6-6--6----6----|--6--6-6-6--6-6-6--6----6----| 
 
 
                                                                              
----------------------|----------------------------|------------------------| 
----------------------|----------------------------|---------------------1--| 
-------5---------7----|----------------------------|--2---------2-----------| 
--6----5----8----8----|--3------3------3------x----|--2---------2--------3--| 
--6---------8---------|--3------3------3-----------|--0----x----0----0-0----| 
--4---------6---------|--1--1-1-1--1-1-1--1-1------|-------x----------------| 
 
 
                                                                             
-------------------------|------------------------|------------------------| 
------------1---1-----8--|------8------8----------|-------1----------------| 
----------------------7--|------7------7----------|--2---------5-----------| 
------------3---3-----5--|------5------5----10----|--2----3----5-----------| 
--------0-0-------0-0----|---------0-0------10----|--0--------------5-3----| 
-------------------------|------------------------|---------------------3--| 
 
 
                                                                              
--------------------------|------------------------|------------------------| 
-----------------------1--|------------1--------8--|------8------8---8------| 
--2---------2--2-2--------|---------------------7--|------7------7---7------| 
--2----x----2--2-2-----3--|------------3--------5--|------5------5---5--x---| 
--0----x----0--0-0-0-0----|--------0-0------0-0----|---------0-0------------| 
--------------------------|------------------------|------------------------| 
 
 
                                                                            
------------------------|------------------------|------------------------| 
-------1----------------|---------------------1--|------------1--------8--| 
--2---------5-----------|--2--------2---2--------|---------------------7--| 
--2----3----5-----------|--2--------2---2-----3--|------------3--------5--| 
--0--------------5-3----|--0--------0---0-0-0----|--------0-0------0-0----| 
---------------------3b-|------------------------|------------------------| 
 
 
                                                                                 
-------------------------|--------------------------------|--------------------| 
------8------8-----------|--------------------------------|--------------------| 
------7------7---------4-|--5---4-------------------------|--2------------2----| 
------5------5-----------|----7---5-7---5-------------5---|--2------------2----| 
---------0-0------12-----|------------7---7-6-5-3---5-5---|--0------------0----| 
-------------------------|------------------------5---3---|--------------------| 
 
 
                                                                 
-------------------|-------------------|-----------------------| 
-------------------|--3----------------|------------1----3-1---| 
--5----------------|--2----------------|--2--------------2-1---| 
--5----------------|--0----------------|--2----5----3----0-----| 
--3----------------|-------------------|--0----5---------------| 
-------------------|-------------------|-------3---------------| 
 
 
                                                                             
------------------------|-------------------------|------------------------| 
---------------------1--|------------1---1-----8--|------8------8----------| 
--2---------2-----------|----------------------7--|------7------7----------| 
--2---------2--------3--|------------3---3-----5--|------5------5----10----| 
--0----x----0----0-0----|--------0-0-------0-0----|---------0-0------10----| 
-------x----------------|-------------------------|------------------------| 
 
 
                                                                           
----------------------|------------------------|-------------------------| 
------------1----3----|---------------------1--|------------1---1-----8--| 
--2--------------2----|--2---------2-----------|----------------------7--| 
--2----5----3----0----|--2---------2--------3--|------------3---3-----5--| 
--0----5--------------|--0----x----0----0-0----|--------0-0-------0-0----| 
-------3--------------|-------x----------------|-------------------------| 
 
 
                                                                          
------------------------|----------------------|------------------------| 
------8------8----------|------------1----3----|---------------------1--| 
------7------7----------|--2--------------2----|--2---------2-----------| 
------5------5----10----|--2----5----3----0----|--2---------2--------3--| 
---------0-0------10----|--0----5--------------|--0----x----0----0-0----| 
------------------------|-------3--------------|-------x----------------| 
 
 
                                                                           
-------------------------|------------------------|----------------------| 
------------1---1-----8--|------8------8----------|------------1----3----| 
----------------------7--|------7------7----------|--2--------------2----| 
------------3---3-----5--|------5------5----10----|--2----5----3----0----| 
--------0-0-------0-0----|---------0-0------10----|--0----5--------------| 
-------------------------|------------------------|-------3--------------| 
 
 
                                                                             
------------------------|-------------------------|------------------------| 
---------------------1--|------------1---1-----8--|------8------8----------| 
--2---------2-----------|----------------------7--|------7------7----------| 
--2---------2--------3--|------------3---3-----5--|------5------5----10----| 
--0----x----0----0-0----|--------0-0-------0-0----|---------0-0------10----| 
-------x----------------|-------------------------|------------------------| 
 
 
                         
----------------------|| 
------------1----3----|| 
--2--------------2----|| 
--2----5----3----0----|| 
--0----5--------------|| 
-------3--------------|| 
 
 
 
 

		  

See also:

tabs Heart - Barracuda tabs Eagles - Hotel California tabs The Beatles - Black Bird tabs Queen - Bohemian Rhapsody tabs Deep Purple - Smoke On The Water (Easy Intro) tabs Eric Clapton - Layla
e-chords

Other versions:

tabs Dio - Born On The Sun
auto scroll beats size up size down change color hide chords drawings
tab show chords e-chords YouTube Clip e-chords hide all tabs e-chords go to top tab

share