Dio

Don't Talk To Strangers

Dio

tabs Expert expert

by  DRUMMER_COMETH

save to print version add songbook text version e-mail correct tuner
chordsukulelecavacokeyboardtabbassdrumsharmonicaflute Guitar Pro
close

there isn't a video lesson for this song

chords

Don't Talk To Strangers

Year: 1983 - Album: Holy Diver Live

	  		Com certeza, essa eh uma das melhores musicas de metal do mundo!! 
 
------------------|---------------|-----------------|-----------------|------- 
-------1-----1---1|----1-----1---1|------1-----1---1|------1-----1---1|------- 
-----2-----2------|--3-----3------|----0-----0------|----2-----2------|------- 
---0-----0-----0--|0-----0-----0--|--3-----2-----3--|--0-----0-----0--|------- 
------------------|---------------|-----------------|-----------------|------- 
------------------|---------------|-----------------|-----------------|------- 
   Intro: clean sound,this is played 5.5 times                                 
 
------------------------------------------------------------------------------ 
------------------------------------------------------------------------------ 
------------------------------------------------------------------------------ 
-----------------------7---------8-------8------------------------------------ 
-----------------------5-5-5-5-5-5-5-5-5-5------------------------------------ 
------------------------------------------------------------------------------ 
 ...only bring you down!     etc..                                             
 
-|---|--------------------------|----|----|----------------------------------- 
-|-10|--------10---------10-----|--9-|--8-|-6--------------------------------- 
-|-7-|--------7----------7------|--7-|--7-|-7--------------------------------- 
-|-0-|0-0-0-0-0--0-0-0-0-0--0-0-|--0-|--0-|-0--------------------------------- 
-|---|--------------------------|----|----|----------------------------------- 
-|---|--------------------------|----|----|----------------------------------- 
 verse:  (hope you understand this)                                            
 
------------------------------------------------------------------------------ 
------------------------------------------------------------------------------ 
----------------------3---5--------------------------------------------------- 
----------------------3---5--------------------------------------------------- 
----------------------1---3--------------------------------------------------- 
------------------------------------------------------------------------------ 
 ...inside your brain!                                                         
 
------------------------------------------------------------------------------ 
------------------------------------------------------------------------------ 
---------7----5--7--10--7--5--5----------------------------------------------- 
---------7----5--7--10--7--5--5----------------------------------------------- 
---------5----3--5--8---5--3--3----------------------------------------------- 
------------------------------------------------------------------------------ 
 Chorus: Don't talk..                                                          
 
------------------------------------------------------------------------------ 
------------------------------------------------------------------------------ 
------------------------------------------------------------------------------ 
------------------------------------------------------------------------------ 
------------------------------------------------------------------------------ 
------------------------------------------------------------------------------ 
 solo rhythm: Dm  Bb  C  (galloping)                                           
 
------------------------------------------------------------------------------ 
------------------------------------------------------------------------------ 
------------------------------------------------------------------------------ 
-7---3---5-------------------------------------------------------------------- 
-5---1---3-------------------------------------------------------------------- 
------------------------------------------------------------------------------ 
 Don't dance in darkness...                                                    
 
Don't talk to strangers 
Mmmmh 
 
Don't talk to strangers 
'Cause they're only there to do you harm 
Don't write in starlight 
'Cause the words may come out real 
 
Don't hide in doorways 
You may find the key that opens up your soul 
Don't go to heaven  
'Cause it's really only hell 
 
Don't smell the flowers 
They're an evil drug to make you loose your mind 
Don't dream of women 
'Cause they only bring you down 
 
Hey you, you know me, you've touched me, I'm real 
I'm forever the one that lets you look and see and 
Feel me 
I'm danger - I'm the stranger 
 
And I, I'm darkness, I'm anger, I'm pain 
I am master 
The evil song you sing inside your brain 
Drive you insane 
Don't talk 
 
Don't let them inside your mind, yeah 
Run away, run away, go! 
 
No - no 
 
Don't let them in your mind 
Protect your soul 
 
Don't dance in darkness 
You may stumble and you're sure to fall 
Don't write in starlight 
'Cause the words may come out real 
 
Don't talk to strangers {Don't talk to strangers} 
'Cause they're only there to make you sad 
Don't dream of women  
'Cause they'll only bring you down 
Yeah 
 
Run, run, run, run away! 
 

		  

Full key step upFull key step up
Half key step upHalf key step up
Half key step downHalf key step down
Full key step downFull key step down
hide glossary

See also:

tabs Heart - Barracuda tabs Eagles - Hotel California tabs The Beatles - Black Bird tabs Queen - Bohemian Rhapsody tabs Deep Purple - Smoke On The Water (Easy Intro) tabs Eric Clapton - Layla
e-chords

Other versions:

tabs Dio - Don't Talk To Strangers
auto scroll beats size up size down change color hide chords drawings
tab show chords e-chords YouTube Clip e-chords hide all tabs e-chords go to top tab

share