Diazepunk

Nid

Diazepunk

tabs

by  GUSTSILVA

save to print version add songbook text version e-mail correct tuner
chordsukulelecavacokeyboardtabbassdrumsharmonicaflute Guitar Pro
close

there isn't a video lesson for this song

chords

Nid

Key:  G More
Nid Key DD
Nid Key D#D#
Nid Key EE
Nid Key FF(one step down)
Nid Key F#F#(half step down)
Nid Key GG(original key)
Nid Key G#G#(half step up)
Nid Key AA(one step up)
Nid Key A#A#
Nid Key BB
Nid Key CC
Nid Key C#C#
	  		
Intro:   G-F-E-(G#-G)   x2 

  |-G-----------------|-F-------------------|-E-----------------| 
G-|-------------------|---------------------|-------------------| 
D-|-------------------|---------------------|-------------------| 
A-|-------------------|---------------------|-------------------| 
E-|-3-3-33-3-33-3-3-3-|-1-1-11-1-11-1-1-1-1-|-0-0-00-0-00-0-0-0-| 

  |-G#--------|-G---------||-G--| 
G-|-----------|-----------||----| 
D-|-----------|-----------||----| 
A-|-----------|-----------||----| 
E-|-44-4-44-4-|-33-3-33-3-||-3--| 


ESTROFA: E-D-C-C 
         G-A-C-C 
         E-D-C-G 
         E-C-G-D 


   (...sabias que a veces yo...) 
  |-E---------|-D---------|-C-------------------| 
G-|-----------|-----------|---------------------| 
D-|-----------|-00-0-00-0-|---------------------| 
A-|-----------|-----------|-XX-3-33-3-33-3-33-3-| 
E-|-00-0-00-0-|-----------|---------------------| 


   (...en tus ojos no veo brillar...) 
  |-G---------|-A---------|-C-------------------| 
G-|-----------|-----------|---------------------| 
D-|-----------|-----------|---------------------| 
A-|-----------|-00-0-00-0-|-XX-3-33-3-33-3-33-3-| 
E-|-33-3-33-3-|-----------|---------------------| 

(...busco una cerveza entre los recuerdos donde alguna vez...) 
  |-E---------|-D---------|-C---------|-G---------| 
G-|-----------|-----------|-----------|-----------| 
D-|-----------|-00-0-00-0-|-----------|-------3-2-| 
A-|-----------|-----------|-33-3-33-3-|-----------| 
E-|-00-0-00-0-|-----------|-----------|-33-3------| 

  (...tú y yo pasamos algún tiempo juntos...) 
  |-E---------|-C---------|-G---------|-D---------| 
G-|-----------|-----------|-----------|-----------| 
D-|-----------|-----------|-----------|-00-0-00-0-| 
A-|-----------|-33-3-33-3-|-----------|-----------| 
E-|-00-0-00-0-|-----------|-33-3-33-3-|-----------| 


Coro :  E-D-C-C   x2 

(...Nunca sabre bien que decir sin ti nada tiene sentido...) 
  |-E---------------|-D---------------|-C---------------|-C---------------| 
G-|-----------------|-----------------|-----------------|-----------------| 
D-|-----------------|-0-00-00-0-00-00-|-----------------|-----------------| 
A-|-----------------|-----------------|-3-33-33-3-33-33-|-3-33-33-3-33-33-| 
E-|-0-00-00-0-00-00-|-----------------|-----------------|-----------------| 

(...solo yo estoy si tú no estás, eres mi única necesidad...) 
  |-E---------------|-D---------------|-C---------------|-C---------------| 
G-|-----------------|-----------------|-----------------|-----------------| 
D-|-----------------|-0-00-00-0-00-00-|-----------------|-----------------| 
A-|-----------------|-----------------|-3-33-33-3-33-33-|-3-33-33-3-33-33-| 
E-|-0-00-00-0-00-00-|-----------------|-----------------|-----------------| 


Estrofa :E-D-C-C 
         E-D-C-C 
         E-D-C-G 
         E-C-G-D 
         C-G-E-D-C-C 


   (...Todo el tiempo eres especial...) 
  |-E---------|-D---------|-C-------------------| 
G-|-----------|-----------|---------------------| 
D-|-----------|-00-0-00-0-|---------------------| 
A-|-----------|-----------|-XX-3-33-3-33-3-33-3-| 
E-|-00-0-00-0-|-----------|---------------------| 


   (...Yo un tonto y nada más...) 
  |-G---------|-A---------|-C-------------------| 
G-|-----------|-----------|---------------------| 
D-|-----------|-----------|---------------------| 
A-|-----------|-00-0-00-0-|-XX-3-33-3-33-3-33-3-| 
E-|-33-3-33-3-|-----------|---------------------| 

(...Capaz solo de sonreír si tu sonrisa logra como el sol brillar...) 
  |-E---------|-D---------|-C---------|-G---------| 
G-|-----------|-----------|-----------|-----------| 
D-|-----------|-00-0-00-0-|-----------|-------3-2-| 
A-|-----------|-----------|-33-3-33-3-|-----------| 
E-|-00-0-00-0-|-----------|-----------|-33-3------| 

  (...tú y yo una cerveza y dejando al tiempo pasar...) 
  |-E---------|-C---------|-G---------|-D---------| 
G-|-----------|-----------|-----------|-----------| 
D-|-----------|-----------|-----------|-00-0-00-0-| 
A-|-----------|-33-3-33-3-|-----------|-----------| 
E-|-00-0-00-0-|-----------|-33-3-33-3-|-----------| 

  (...lo siento quizás no debí decirlo...) 
  |-C---------|-G---------|-E---------|-D---------| 
G-|-----------|-----------|-----------|-----------| 
D-|-----------|-----------|-----------|-00-0-00-0-| 
A-|-33-3-33-3-|-----------|-----------|-----------| 
E-|-----------|-33-3-33-3-|-00-0-00-0-|-----------| 

  |-C---------|-C---------| 
G-|-----------|-----------| 
D-|-----------|-----------| 
A-|-33-3-33-3-|-33-3-33-3-| 
E-|-----------|-----------| 


Coro :  E-D-C-C   x2 

(...Nunca sabre bien que decir sin ti nada tiene sentido...) 
  |-E---------------|-D---------------|-C---------------|-C---------------| 
G-|-----------------|-----------------|-----------------|-----------------| 
D-|-----------------|-0-00-00-0-00-00-|-----------------|-----------------| 
A-|-----------------|-----------------|-3-33-33-3-33-33-|-3-33-33-3-33-33-| 
E-|-0-00-00-0-00-00-|-----------------|-----------------|-----------------| 

(...solo yo estoy si tú no estás, eres mi única necesidad...) 
  |-E---------------|-D---------------|-C---------------|-C---------------| 
G-|-----------------|-----------------|-----------------|-----------------| 
D-|-----------------|-0-00-00-0-00-00-|-----------------|-----------------| 
A-|-----------------|-----------------|-3-33-33-3-33-33-|-3-33-33-3-33-33-| 
E-|-0-00-00-0-00-00-|-----------------|-----------------|-----------------| 

MIDTRO :  G-F-E-(G#-G)  x2 

  |-G-----------------|-F-----------------|-E-----------------| 
G-|-------------------|-------------------|-------------------| 
D-|-------------------|-------------------|-------------------| 
A-|-------------------|-------------------|-------------------| 
E-|-3-3-33-3-33-3-3-3-|-1-1-11-1-11-1-1-1-|-0-0-00-0-00-0-0-0-| 

  |-G#--------|-G---------| 
G-|-----------|-----------| 
D-|-----------|-----------| 
A-|-----------|-----------| 
E-|-44-4-44-4-|-33-3-33-3-| 


Interludio :  E-D-C-C   x2 

  |-E---------------|-D---------------|-C---------------|-C---------------| 
G-|-----------------|-----------------|-----------------|-----------------| 
D-|-----------------|-----------------|-----------------|-----------------| 
A-|-7-77-77-7-77-77-|-5-55-55-5-55-55-|-3-33-33-3-33-33-|-3-33-33-3-33-33-| 
E-|-----------------|-----------------|-----------------|-----------------| 

  |-E---------------|-D---------------|-C---------------|-C---------------| 
G-|-----------------|-----------------|-----------------|-----------------| 
D-|-----------------|-----------------|-----------------|-----------------| 
A-|-7-77-77-7-77-77-|-5-55-55-5-55-55-|-3-33-33-3-33-33-|-3-33-33-3-33-33-| 
E-|-----------------|-----------------|-----------------|-----------------| 


Solo :  E-D-C-C   x2 

  |-E---------------|-D---------------|-C---------------|-C---------------| 
G-|-----------------|-----------------|-----------------|-----------------| 
D-|-----------------|-0-00-00-0-00-00-|-----------------|-----------------| 
A-|-----------------|-----------------|-3-33-33-3-33-33-|-3-33-33-3-33-33-| 
E-|-0-00-00-0-00-00-|-----------------|-----------------|-----------------| 

  |-E---------------|-D---------------|-C---------------|-C---------------| 
G-|-----------------|-----------------|-----------------|-----------------| 
D-|-----------------|-0-00-00-0-00-00-|-----------------|-----------------| 
A-|-----------------|-----------------|-3-33-33-3-33-33-|-3-33-33-3-33-33-| 
E-|-0-00-00-0-00-00-|-----------------|-----------------|-----------------| 

Coro :  E-D-C-C   x2 

(...Nunca sabre bien que decir sin ti nada tiene sentido...) 
  |-E---------------|-D---------------|-C---------------|-C---------------| 
G-|-----------------|-----------------|-----------------|-----------------| 
D-|-----------------|-----------------|-----------------|-----------------| 
A-|-7-77-77-7-77-77-|-5-55-55-5-55-55-|-3-33-33-3-33-33-|-3-33-33-3-33-33-| 
E-|-----------------|-----------------|-----------------|-----------------| 

(...solo yo estoy si tú no estás ... no lo notaste...) 
  |-E---------------|-D---------------|-C---------------|-C---------------| 
G-|-----------------|-----------------|-----------------|-----------------| 
D-|-----------------|-----------------|-----------------|-----------------| 
A-|-7-77-77-7-77-77-|-5-55-55-5-55-55-|-3-33-33-3-33-33-|-3-33-33-3-33-33-| 
E-|-----------------|-----------------|-----------------|-----------------| 
		  

Full key step upFull key step up
Half key step upHalf key step up
Half key step downHalf key step down
Full key step downFull key step down
auto scroll beats size up size down change color hide chords drawings
tab show chords e-chords YouTube Clip e-chords hide all tabs e-chords go to top tab

share