Diazepunk

10:10

Diazepunk

tabs

by  GUSTSILVA

save to print version add songbook text version e-mail correct tuner
chordsukulelecavacokeyboardtabbassdrumsharmonicaflute Guitar Pro
close

there isn't a video lesson for this song

chords

10:10

Key:  E More
10:10 Key BB
10:10 Key CC
10:10 Key C#C#
10:10 Key DD(one step down)
10:10 Key D#D#(half step down)
10:10 Key EE(original key)
10:10 Key FF(half step up)
10:10 Key F#F#(one step up)
10:10 Key GG
10:10 Key G#G#
10:10 Key AA
10:10 Key A#A#
	  		Intro lenta :  E - C#  x2 

  |-E-----------------|-C#----------------| 
G-|-------------------|-------------------| 
D-|-------------------|-------------------| 
A-|-------------------|-4-4-44-4-44-4-4-4-| 
E-|-0-0-00-0-00-0-0-0-|-------------------| 

  |-E-----------------|-C#----------------| 
G-|-------------------|-------------------| 
D-|-------------------|-------------------| 
A-|-------------------|-4-4-44-4-44-4-4-4-| 
E-|-0-0-00-0-00-0-0-0-|-------------------| 


Intro rápida :  E - C#  x2 

  |-E----------------|-C#---------------| 
G-|------------------|------------------| 
D-|------------------|------------------| 
A-|------------------|-4444444444444444-| 
E-|-0000000000000000-|------------------| 

  |-E----------------|-C#---------------| 
G-|------------------|------------------| 
D-|------------------|------------------| 
A-|------------------|-4444444444444444-| 
E-|-0000000000000000-|------------------| 


Estrofa SIN Bajo : 
(...No puedo despertar. 
Estoy atrapado y no quiero escapar 
de este sueño que no entenderé jamás. 
se ha detenido el reloj...) 

Estrofa CON Bajo :   E-B-(C#-B)-A 
                       B-C#-(A-E)-B  x2 
                       A-A                x2 

(...Ella llegó, yo la encontré silbando una vieja canción...) 
  |-E---------------|-B---------------|-C#------B-------|-A---------------| 
G-|-----------------|-----------------|-----------------|-----------------| 
D-|-----------------|-----------------|-----------------|-----------------| 
A-|-----------------|-2-22-22-2-22-22-|-4-44-44-2-22-22-|-0-00-00-0-00-00-| 
E-|-0-00-00-0-00-00-|-----------------|-----------------|-----------------| 

(...Con el primer abrazo robó mi corazón no lo devolvió jamás...) 
  |-B---------------|-C#--------------|-A-------E-------|-B---------------| 
G-|-----------------|-----------------|-----------------|-----------------| 
D-|-----------------|-----------------|-----------------|-----------------| 
A-|-2-22-22-2-22-22-|-4-44-44-4-44-44-|-0-00-00---------|-2-22-22-2-22-22-| 
E-|-----------------|-----------------|---------0-00-00-|-----------------| 

(...jamás!...) 

  |-A---------------|-A---------------| 
G-|-----------------|-----------------| 
D-|-----------------|-----------------| 
A-|-0-00-00-0-00-00-|-0-00-00-0-00-00-| 
E-|-----------------|-----------------| 


(...Respiro aire de ciudad que a veces no me deja pensar...) 
  |-E---------------|-B---------------|-C#------B-------|-A---------------| 
G-|-----------------|-----------------|-----------------|-----------------| 
D-|-----------------|-----------------|-----------------|-----------------| 
A-|-----------------|-2-22-22-2-22-22-|-4-44-44-2-22-22-|-0-00-00-0-00-00-| 
E-|-0-00-00-0-00-00-|-----------------|-----------------|-----------------| 

(...Pues son sólo recuerdos que no quiero olvidar jamás, 
aunque no logre despertar...) 
  |-B---------------|-C#--------------|-A-------E-------|-B---------------| 
G-|-----------------|-----------------|-----------------|-----------------| 
D-|-----------------|-----------------|-----------------|-----------------| 
A-|-2-22-22-2-22-22-|-4-44-44-4-44-44-|-0-00-00---------|-2-22-22-2-22-22-| 
E-|-----------------|-----------------|---------0-00-00-|-----------------| 

(...Quiero oírte otra vez latir y en cada verso sentir tu corazón...) 
  |-E---------------|-B---------------|-C#------B-------|-A---------------| 
G-|-----------------|-----------------|-----------------|-----------------| 
D-|-----------------|-----------------|-----------------|-----------------| 
A-|-----------------|-2-22-22-2-22-22-|-4-44-44-2-22-22-|-0-00-00-0-00-00-| 
E-|-0-00-00-0-00-00-|-----------------|-----------------|-----------------| 

(...que golpea junto al mío como lo hace una canción que sólo 
aprendimos los dos...) 
  |-B---------------|-C#--------------|-A-------E-------|-B---------------| 
G-|-----------------|-----------------|-----------------|-----------------| 
D-|-----------------|-----------------|-----------------|-----------------| 
A-|-2-22-22-2-22-22-|-4-44-44-4-44-44-|-0-00-00---------|-2-22-22-2-22-22-| 
E-|-----------------|-----------------|---------0-00-00-|-----------------| 

(...al soñar!...) 
  |-A---------------|-A---------------| 
G-|-----------------|-----------------| 
D-|-----------------|-----------------| 
A-|-0-00-00-0-00-00-|-0-00-00-0-00-00-| 
E-|-----------------|-----------------| 


Interludio :    E-B-C#-A   x2 
  |-E---------------|-B---------------|-C#--------------|-A---------------| 
G-|-----------------|-----------------|-----------------|-----------------| 
D-|-----------------|-----------------|-----------------|-----------------| 
A-|-----------------|-2-22-22-2-22-22-|-4-44-44-4-44-44-|-0-00-00-0-00-00-| 
E-|-0-00-00-0-00-00-|-----------------|-----------------|-----------------| 

  |-E---------------|-B---------------|-C#--------------|-A---------------| 
G-|-----------------|-----------------|-----------------|-----------------| 
D-|-----------------|-----------------|-----------------|-----------------| 
A-|-----------------|-2-22-22-2-22-22-|-4-44-44-4-44-44-|-0-00-00-0-00-00-| 
E-|-0-00-00-0-00-00-|-----------------|-----------------|-----------------| 

  |-----------------|-----------------|-----------------|-----------------| 
G-|-----------------|-----------------|-----------------|-----------------| 
D-|-----------------|-----------------|-----------------|-----------------| 
A-|-----------------|-----------------|-----------------|-----------------| 
E-|-----------------|-----------------|-----------------|-----------------| 

Outro :  E-C# x 2 

  |-E----------------|-C#---------------| 
G-|------------------|------------------| 
D-|------------------|------------------| 
A-|------------------|-4444444444444444-| 
E-|-0000000000000000-|------------------| 

  |-E----------------|-C#---------------|-E------|-E------| 
G-|------------------|------------------|--------|--------| 
D-|------------------|------------------|--------|--------| 
A-|------------------|-4444444444444444-|-7~~~~--|-7/-----| 
E-|-0000000000000000-|------------------|--------|--------| 
		  

Full key step upFull key step up
Half key step upHalf key step up
Half key step downHalf key step down
Full key step downFull key step down
auto scroll beats size up size down change color hide chords drawings
tab show chords e-chords YouTube Clip e-chords hide all tabs e-chords go to top tab

share