Delirious

Heaven

Delirious

tabs

by  VICTBORGES

save to print version add songbook text version e-mail correct tuner
chordsukulelecavacokeyboardtabbassdrumsharmonicaflute Guitar Pro
close

there isn't a video lesson for this song

chords

Heaven

Year: 1999 - Album: Mezzamorphis

	  		 

Tuning: Standard 

This song is somewhat tricky at times, so listening to the song while playing it may be handy. 

Intro: 
e|----------------------------------------------------------------------------------| 
B|----------------------------------------------------------------------------------| 
G|----------------------------------------------------------------------------------| 
D|----------------------------------------------------------------------------------| 
A|----------------------------------------------------------------------------------| 
E|--0--0--0-----------------0--0--0-----------------0--0--0------------------0--0--0| 

Continued Intro and first two lines of Verse: 
e|---------------------------| 
B|---------------------------| 
G|---------------------------|  Repeat as needed 
D|-----------x--x--x--x--x---| 
A|-----------x--x--x--x--x---| 
E|--0--0--0--x--x--x--x--x---| 

Third Line of Verse (This isn't exact, but it sounds okay) 
e|---------------------------| 
B|---------------------------| 
G|--5--3--5------------------| 
D|--5--5--5--x--x--x--x--x---| 
A|--3--5--3--x--x--x--x--x---| 
E|-----------x--x--x--x--x---| 

Fourth Line of Verse (Not exact either, but still sounds okay) 
e|---------------------------------------------------------------------------| 
B|---------------------------------------------------------------------------| 
G|--6--6--6------------------------------------------------------------------| 
D|--6--6--6--x--x--x--x--x---------------------------------------------------| 
A|--4--4--4--x--x--x--x--x---------------------------------------------------| 
E|-----------x--x--x--x--x---------------------------------------------------| 

Pre-Chorus (play this twice after the first verse, but only once after verse two) 
e|--------10----------5-----------3-------| 
B|-----8-----------3-----------1----------| 
G|--9-----------4-----------2-------------| 
D|----------------------------------------| 
A|----------------------------------------| 
E|----------------------------------------| 

For the Chorus, play octaves on the A string, like so (only go up to the fourth one in Chorus one) 
(this is just the way to play it, not the exact way it is played in the song, so timing is not included) 
(listen to the song to figure that out) 
e|---------------------------------------------------------------------------| 
B|---------------------------------------------------------------------------| 
G|--5--7--9--11--12----------------------------------------------------------| 
D|--x--x--x--x----x----------------------------------------------------------| 
A|--3--5--7--9---10----------------------------------------------------------| 
E|---------------------------------------------------------------------------| 

Solo: 
Ok,I'm primarily a rhythm guitarist, so I didn't actually try to tab out the lead.  But here is the rhythm for 
the solo. 

e|---------------------------------------------------------------------------| 
B|---------------------------------------------------------------------------| 
G|-----9---7-9-7-9--9-7-9--------------------------------9---7-9-7-9--9-7-9--| 
D|-----9---7-9-7-9--9-7-9----7--7---5-7-5---7-5-7--------9---7-9-7-9--9-7-9--| 
A|---------------------------7--7---5-7-5---7-5-7----------------------------| 
E|--0-------------------------------------------------0----------------------| 

e|-------------------------| 
B|-------------------------| 
G|-5----------7------------| 
D|-5----------7------------| 
A|-3----------5------------| 
E|-------------------------| 

e|---------------------------------------------------------------------------| 
B|---------------------------------------------------------------------------| 
G|-----9---7-9-7-9--9-7-9--------------------------------9---7-9-7-9--9-7-9--| 
D|-----9---7-9-7-9--9-7-9----7--7---5-7-5---7-8-7--------9---7-9-7-9--9-7-9--| 
A|---------------------------7--7---5-7-5---7-8-7----------------------------| 
E|--0-------------------------------------------------0----------------------| 

e|-------------------------| 
B|-------------------------| 
G|-5----------2------------| 
D|-5----------2------------| 
A|-3-----------------------| 
E|-------------------------| 

And that's all I have.  I apologize in advance for its muddled state. 



************************************ 

| /   slide up 
| \   slide down 
| h   hammer-on 
| p   pull-off 
| ~   vibrato 
| +   harmonic 
| x   Mute note 
| b   Bend 
| pb  Pre-bend 
| br  Bend release 
| pbr Pre-bend release 
| brb Bend release bend 

************************************ 
		  

See also:

tabs Kelly Clarkson - Behind These Hazel Eyes tabs Michael Jackson - Beat it tabs Michael Jackson - Heal The World tabs Decode Acoustic - Paramore tabs Steven tyler & Santana - Just feel better(intro) tabs Michael Jackson - Billie Jean (Fingerstyle)
e-chords

Other versions:

tabs Los Lonely Boys - Heaven tabs John Frusciante - Heaven tabs 3 Doors Down - Heaven tabs After School - Heaven tabs Delirious - Heaven tabs Los Lonely Boys - Heaven (intro)
auto scroll beats size up size down change color hide chords drawings
tab show chords e-chords YouTube Clip e-chords hide all tabs e-chords go to top tab

share