Deicide

Bible Basher

Deicide

tabs

by  THE_BLACKMETAL

save to print version add songbook text version e-mail correct tuner
chordsukulelecavacokeyboardtabbassdrumsharmonicaflute Guitar Pro
close

there isn't a video lesson for this song

chords

Bible Basher

	  		..  - palm mute 
 /  - slide up to 
 \  - slide down to 
 
Tune Gtr to D 
 
BIBLE BASHER 
 
Riff A                            6tx 
|------------------------------------| 
|------------------------------------| 
|------------------------------------| 
|-88888888888888889999---------------| 
|----------------------88889999------| 
|-------------------------------7777-| 
 
 
Riff B                                     5tx 
|--------------------------------------------------| 
|--------------------------------------------------| 
|--------------------------------------------------| 
|-1---0---1---2---1---0---1---2---1----------------| 
|-1---0---1---2---1---0---1---2---1----5---4---5---| 
|---0---0---0---0---0---0---0---0----0-3-0-2-0-3-0-| 
    .   .   .   .   .   .   .   . . . . . . . 
 
Riff C                       6tx 
|-------------------------------| 
|-------------------------------| 
|-------------------------------|Gtr 
|-------------------------------| I 
|-8\9/8---8---7---6---4---7---6-| 
|-6\7/6-0-6-0-5-0-4-0-2-0-5-0-4-| 
|       .   .   .   .   .   . 
 
Riff D                                2tx 
|-----------------------------------------| 
|-----------------------------------------| 
|-----------------------------------------| 
|---------------------------2/5-------1/4-| 
|-------2/5-------1/4---------------------| 
|-7-6-5-----7-6-5-----7-6-5-----7-6-5-----| 
| . . .     . . .     . . .     . . . 
| 
|-----------------------------------------| 
|-----------------------------------------| 
|-----------------------------------------| 
|---------------------------5\8-------4\7-| 
|-------5\8-------4\7---------------------| 
|-7-6-5-----7-6-5-----7-6-5-----7-6-5-----| 
  . . .     . . .     . . .     . . . 
 
I'm not too sure about riff D, I'll probly correct it later on, busy at mo 
 
Riff A (x6) 
Riff B (x5) 
Riff C (x6) 
Riff D (x2) 
Riff A (x5) 
 
 
Riff Ai 
|----------------------------------| 
|----------------------------------| 
|----------------------------------| 
|-88888888888888888-9--------------| 
|-----------------------8----9-----| 
|--------------------------------7-| 
                    .   .    .   . 

		  

See also:

tabs Avenged Sevenfold - Afterlife tabs Dream Theater - Through her eyes tabs Avenged Sevenfold - Heretic tabs Marilyn Manson - Antichrist Superstar tabs Slipknot - Before I Forget tabs Motley Crue - Kickstart My Heart
e-chords

Other versions:

tabs Deicide - Bible Basher
auto scroll beats size up size down change color hide chords drawings
tab show chords e-chords YouTube Clip e-chords hide all tabs e-chords go to top tab

share