Deicide

Revocate the Agitator

Deicide

tabs

save to print version add songbook text version e-mail correct tuner
chordsukulelecavacokeyboardtabbassdrumsharmonicaflute Guitar Pro
close

there isn't a video lesson for this song

chords

Revocate the Agitator

	  		 
Fig. 1 x3 
e|-------------------| 
B|-------------------| 
G|-------------------| 
D|----------2-2-3-3--| 
A|-------------------| 
E|--2-0-3-3----------| 
    . . . . . . . . 
 
Riff 1 x8 (Inhumation, intermenting heaven's light...) 
e|----------------------------------------------| 
B|----------------------------------------------| 
G|----------------------------------------------| 
D|------------------------------3333------2222--| 
A|----------------------------------------------| 
E|--000000000000000000000--1111------3333-------| 
 
Riff 2 x4 (Revocation, all Christians are destroyed...) 
e|-------------------------------|-------------------------------| 
B|-------------------------------|--------------------------5-6--| 
G|----------3-2---2-1------------|----------3-2---2-1------------| 
D|--------3-----3-----2-3--------|--------3-----3-------2-3------| 
A|-------------------------------|-------------------------------| 
E|--0-0-0-----------------0-2-3--|--0-0-0-------------0----------| 
 
Riff 3 x7 
e|---------------|-------------| 
B|---------------|-------------| 
G|---------------|-------------| 
D|---------------|--------4----| 
A|----5-4---4----|----5-4---5--| 
E|--3-----5---6--|--3----------| 
 
Repeat Riff 1 x8 
 
Fill 1 x1 
e|-------------------| 
B|-------------------| 
G|--3-2---2-1--------| 
D|------3-------2-3--| 
A|-------------------| 
E|------------0------| 
 
Riff 4 x4 
e|--------------------------------------------------1p0----------------------------------------| 
B|------------------------------------------------------2-5p4---4p3---3p2---2p1---5p4---4p3----| 
G|----------------------------------3p2---2p1---1p0-----------5-----4-----3-----2-----5-----4--| 
D|--------------------------------------3-----2------------------------------------------------| 
A|---------------------------------------------------------------------------------------------| 
E|--0-0-0-0-0-0-0-0-0-0-0-0-0-0-0-0------------------------------------------------------------| 
 
Fill 2 x1 
e|---------------------------------------------------------------| 
B|---------------------------------------------------------------| 
G|---------------------------------------------------------------| 
D|---------------------------------------------------------------| 
A|---------------------------------------------------------------| 
E|--6p5-0-5p4-0-6p5-0-4p3-0-5p4-0-3p2-0-4p3-0-2p1-0-3p2-0-1h0-0--| 
 
Riff 5 x4 
e|-----------------------------------------------------------| 
B|-----------------------------------------------------------| 
G|-----------------------------------------------------------| 
D|-----------------------------------------------------------| 
A|-----------------------------------------------------------| 
E|--0-0-0-0-0-0-0-0-0-0-0-0-0-0-0-0-6p5-0-5p4-0-4p3-0-2p0-0--| 
 
Fill 3 x1 
e|---------------------------| 
B|---------------------------| 
G|---------------------------| 
D|---------------------------| 
A|---------------------------| 
E|--6p5-0-5p4-0-4p3-0-2p0-0--| 
 
Repeat Fig. 1 x6 
Repeat Riff 1 x8 
Repeat Fig. 1 x1 
 
 
_______________________________________________________ 
Contribuição: Angelo Gonçalves([email protected]) 

		  

See also:

tabs Avenged Sevenfold - Afterlife tabs Dream Theater - Through her eyes tabs Avenged Sevenfold - Heretic tabs Marilyn Manson - Antichrist Superstar tabs Slipknot - Before I Forget tabs Motley Crue - Kickstart My Heart
e-chords

Other versions:

tabs Deicide - Revocate the Agitator
auto scroll beats size up size down change color hide chords drawings
tab show chords e-chords YouTube Clip e-chords hide all tabs e-chords go to top tab

share