Cypress Hill

Trouble

Cypress Hill

tabs Advanced advanced

save to print version add songbook text version e-mail correct tuner
chordsukulelecavacokeyboardtabbassdrumsharmonicaflute Guitar Pro
close

there isn't a video lesson for this song

chords

Trouble

	  		Album - Stoned Raiders 
Tabbed by - Simon.T 
 
I'm surprized no one has tabbed this already. 
 
As some one rightly pointed out to me, this song is played in drop-c tuning (thanks to Neno17) (C,G,C,F,A,D) 
 
C     -  | ---------------------------------------------- 
G      - | ---------------------------------------------- 
C      - | -------0--2----------------------------------- 
F      - | ---------------0----1-----3------------------- 
A      - | ----------------------------------------------- 
D      - | ------------------------------------------------ repeat as many times as ness... 
 
Chorus 
 
C          - | ----0---0---0---0------3---3---3----1---1------ 
G          - | ----0---0---0---0------3---3---3----1---1------ 
C          - | ----------------------------------------------- 
F          - | ----------------------------------------------- 
A          - | ----------------------------------------------- 
D          - | ----------------------------------------------- 
 
I think that's it, i'm sure there will be corrections, just mail me at [email protected] 
 

		  

auto scroll beats size up size down change color hide chords drawings
tab show chords e-chords YouTube Clip e-chords hide all tabs e-chords go to top tab

share