Cypress Hill

Rocksuperstar

Cypress Hill

tabs

save to print version add songbook text version e-mail correct tuner
chordsukulelecavacokeyboardtabbassdrumsharmonicaflute Guitar Pro
close

there isn't a video lesson for this song

chords

Rocksuperstar

	  		Tabber  : David Vega Gonzalez alias ? El Padrino ?  
---> [email protected] 
 
Intro 
|----13-17----18----17-13----13-17----18----17-13----13-17----20--| 
|-15-------15----15-------15-------15-----15------15-------15-----| 
|-----------------------------------------------------------------| 
|-----------------------------------------------------------------| 
|-----------------------------------------------------------------| 
|-----------------------------------------------------------------| 
 
|----18-17----13-17----20----18-17----13-17---18----17-13----13-| 
|-15-------15-------15----15-------15------15----15-------15----| 
|---------------------------------------------------------------| 
|---------------------------------------------------------------| 
|---------------------------------------------------------------| 
|---------------------------------------------------------------| 
 
Verse 
e|---------------------------------------------------------| 
b|-----------------------1----------------------------3----| 
g|-----------------------2----------------------------3----|  
d|-2-2--2-2--2-2--2-2-2-2--2-2-3-3--3-3--3-3--3-3-1-1--1-1-|  
a|-2-2--2-2--2-2?-2-2----------3-3--3-3--3-3--3-3----------| 
e|-0-0--0-0--0-0--0-0----------1-1--1-1--1-1--1-1--------- 
 
Guitar 2  
e|---------------------------|---------------------------| 
B|---------------------------|---------------------------| 
G|---------------------------|---------------------------| 
D|-0-0--0-0--0-0--0-0--0-0-0-|-1-1--1-1--1-1--1-1--1-1-1-| 
A|-0-0--0-0--0-0--0-0--0-0-0-|-1-1--1-1--1-1--1-1--1-1-1-| 
D|-0-0--0-0--0-0--0-0--0-0-0-|-1-1--1-1--1-1--1-1--1-1-1-| 
 
I remember the days when I was a young kid growin' up  
Looking in the mirror dreamin' about blowin' up  
The rock crowd, make money, chill with the honey's  
Sign autographs or whatever the people want from me  
***'s funny how impossible dreams manifest  
And the games that be comin' with it, nevertheless  
You got to go for the gusto but you don't know  
About the blood, sweat and tears and losing some of your peers ... 
 
Chorus 
e|-10-10-10-10-10-10-10-10-|-11-11-11-11-11-11-11-11-| 
B|-------------------------|-------------------------| 
G|-7--7--7--7--7--7--7--7--|-8--8--8--8--8--8--8--8--| 
D|-------------------------|-------------------------| 
A|-------------------------|-------------------------| 
D|-------------------------|-------------------------| 
 
"So you wanna be a rock superstar?  
And live large, a big house, 5 cars, you're in charge  
Comin' up in the world don't trust no body  
Gotta look over your shoulder constantly"  
 
 
 

		  

auto scroll beats size up size down change color hide chords drawings
tab show chords e-chords YouTube Clip e-chords hide all tabs e-chords go to top tab

share